Strokes - Heart In A Cage tab


                             HEART IN A CAGE(Intro+Solo)
                              =THE STROKES=
Standard tuning
s=Slide
p=Pull-off

INTRO
I put a symbol over all the notes you should accent while playing.


            __       __
|--4s15--15-15-15-14-14-14-|
|--6s18-18-18-18-15-15-15--|
|--------------------------|
|--------------------------|
|--------------------------|
|--------------------------|x3
      __       __
|--13-13-13-11-11-11-------|
|-15-15-15-13-13-13--------|
|--------------------------|
|--------------------------|
|--------------------------|
|--------------------------|

      __       __
|--15-15-15-14-14-14-------|
|-18-18-18-15-15-15--------|
|--------------------------|
|--------------------------|
|--------------------------|
|--------------------------|x3
      __      __
|--13-13-13-11--------3----|
|-15-15-15-13-13-11---4----|<--not 100% sure if thats the right chord but it
|---------------------5----|     sounds about right.
|---------------------5----|
|--------------------------|
|--------------------------|


SOLO



|18p16p15-16p15--15------------------------------------------------------|
|--------------18--18p16-18p16p15-16p15--15------------------------------|
|---------------------------------------17-17p15-17p15--15---------------|
|------------------------------------------------------18-18p17-18p17p15-|
|------------------------------------------------------------------------|
|------------------------------------------------------------------------|


 ----------------------------------------------|
 ----------------------------------------------|
 -------------------------55555555-------------|
 -17p15-15----------------55555555-------------|
 ------18-18p17-18p17--15s33333333-------------|
 --------------------18------------------------|




ENJOY!
Tap to rate this tab
 
# A B C D E F G H I J K L M N O P Q R S T U V W X Y Z