Song name
# A B C D E F G H I J K L M N O P Q R S T U V W X Y Z

Strokes - Someday chords

Highlighted       Show chord diagrams
Artist: Strokes
Song: Someday

The following chord patterns combine the bass line, the chords and the guitar 
theme, so you can play it single-handed without missing a thing:

~ = same note (not 'let ring')

INTRO + VERSE:
   A         Bm7 (D6/b) D6        A
e|-5-7-------9-7--------9-7-------7-5--------|
B|-5-~-------7-~--------7-~-------5-~--------|
G|-6-~-------7-~--------7-~-------6-~--------|
D|-7-~-------7-~--------0-~-------7-~--------|
A|-0-~-------9-~------------------0-~--------|
E|-----------7-~-----------------------------|

CHORUS:
   A        (harder )   E       F#m    D   A                   E
e|----------(9--12-9)------------------5---5---|             |-7---|
B|----------(10-~--~)------------------7---5---|             |-9---|
G|-6-9-6-or-(9--~--~)---4-7-4---2-6-2--7---6---|             |-9---|
D|-7-~-~----(11-~--~)---6-~-~---4-~-~--7---7---| x4 and then |-9---|
A|-0-~-~----(0--~--~)---7-~-~---4------5---7---|             |-7---|
E|----------------------0-~-~---2-~-~------5---|             |-0---|

End on A...


CHORDS AND LYRICS:
A
In many ways
        Bm7
They'll miss the good old days
D6       A
Someday, someday

Yeah, it hurts to say
But I want you to stay
Sometimes, sometimes

When we was young
Oh, man, did we have fun
Always, always

Promises   
They break before they're made
Sometimes, sometimes

    A              E           F#m
Oh, my ex says I'm lacking in depth
D            A
I will do my best

You say you want to stay by my side
Darling, your head's not right

I see alone we stand, together we fall apart
Yeah, I think I'll be alright

I'm working so I won't have to try so hard
Tables they turn sometimes
        E
Oh, someday
                            A
Now I ain't wasting no more time

And now my fears
They come to me in threes
So I  sometimes

Say faith my friend
You say the strangest things
I find sometimes

chorus


My thanks to Stoneman and Dan for their tabs..
- Lean
Tap to rate this tab
 
# A B C D E F G H I J K L M N O P Q R S T U V W X Y Z