Song name
# A B C D E F G H I J K L M N O P Q R S T U V W X Y Z

Strokes - Metabolism tab

Artist: The Strokes
Song: Metabolism
Album: Angels
Tuning: Standard
Tabbed By: Indie Nation

|----------------------|----------------------|----------------------|
|----------------------|----------------------|----------------------|
|----------------------|----------------------|----------------------|
|----------------------|----------------------|----------------------|
|-----6--------6-------|-----6--------7-------|-----6--------9-------|
|--4-----4--7-----7----|--6-----6--5-----5----|--4-----4--7-----7----|


|----------------------|----------------------|----------------------|
|----------------------|----------------------|----------------------|
|----------------------|----------------------|----------------------|
|----------------------|----------------------|----------------------|
|-----8--------5-------|-----6--------6-------|-----6--------7-------|
|--6-----6--3-----3----|--4-----4--7-----7----|--6-----6--5-----5----|


|----------------------|----------------------|----------------------|
|----------------------|----------------------|--9--9--9-------------|
|----------------------|----------------------|-----------8--8--8----|
|----------------------|----------------------|----------------------|
|-----6--------9-------|-----8--------5-------|----------------------|
|--4-----4--7-----7----|--6-----6--3-----3----|----------------------|


|----------------------|----------------------|----------------------|
|----------------------|----------------------|----------------------|
|----------------------|--8--8--8-------------|----------------------|
|--11-11-11-9--9--9----|-----------11-11-11---|--9--9--9--8--8--8----|
|----------------------|----------------------|----------------------|
|----------------------|----------------------|----------------------|


|----------------------|----------------------|----------------------|
|----------------------|----------------------|--9--9--9-------------|
|--9--9--9-------------|----------------------|-----------8--8--8----|
|-----------11-11-11---|--9--9--9--8--8--8----|----------------------|
|----------------------|----------------------|----------------------|
|----------------------|----------------------|----------------------|


|----------------------|----------------------|----------------------|
|----------------------|--11-11-11------------|----------------------|
|----------------------|-----------9--9--9----|----------------------|
|--9--9--9-------------|----------------------|--9--9--9--8--8--8----|
|-----------11-11-11---|----------------------|----------------------|
|----------------------|----------------------|----------------------|


|----------------------|----------------------|----------------------|
|--11-11-11------------|----------------------|--11-11-11------------|
|-----------9--9--9----|----------------------|-----------9--9--9----|
|----------------------|--9--9--9--8--8--8----|----------------------|
|----------------------|----------------------|----------------------|
|----------------------|----------------------|----------------------|


|----------------------|----------------------|----------------------|
|----------------------|--11-11-11------------|----------------------|
|----------------------|-----------9--9--9----|----------------------|
|--9--9--9--8--8--8----|----------------------|--9--9--9--8--8--8----|
|----------------------|----------------------|----------------------|
|----------------------|----------------------|----------------------|


|----------------------|----------------------|----------------------|
|----------------------|----------------------|----------------------|
|--8--8--8-------------|----------------------|--8--8--8-------------|
|-----------6--6--6----|----------------------|-----------6--6--6----|
|----------------------|--7--7--7--6--6--6----|----------------------|
|----------------------|----------------------|----------------------|


|----------------------|----------------------|----------------------|
|----------------------|----------------------|----------------------|
|----------------------|--8--8--8-------------|----------------------|
|----------------------|-----------6--6--6----|----------------------|
|--7--7--7--6--6--6----|----------------------|--7--7--7--6--6--6----|
|----------------------|----------------------|----------------------|


|----------------------|----------------------|----------------------|
|----------------------|----------------------|----------------------|
|--8--8--8-------------|----------------------|----------------------|
|-----------6--6--6----|----------------------|----------------------|
|----------------------|--7--7--7--6--6--6----|-----6--------6-------|
|----------------------|----------------------|--4-----4--7-----7----|


|----------------------|----------------------|----------------------|
|----------------------|----------------------|----------------------|
|----------------------|----------------------|----------------------|
|----------------------|----------------------|----------------------|
|-----6--------7-------|-----6--------9-------|-----8--------5-------|
|--6-----6--5-----5----|--4-----4--7-----7----|--6-----6--3-----3----|


|----------------------|----------------------|----------------------|
|----------------------|----------------------|----------------------|
|----------------------|----------------------|----------------------|
|----------------------|----------------------|----------------------|
|-----6--------6-------|-----6--------7-------|-----6--------9-------|
|--4-----4--7-----7----|--6-----6--5-----5----|--4-----4--7-----7----|


|----------------------|-------|-------|-------|-------|-------|--------|--------|
|----------------------|-------|-------|-------|-------|--9----|--(9)---|--(9)---|
|----------------------|--4----|--3----|--4----|--6----|--9----|--(9)---|--(9)---|
|----------------------|--6----|--6----|--6----|--6----|--11---|--(11)--|--(11)--|
|-----8--------5-------|-------|-------|-------|-------|-------|--------|--------|
|--6-----6--3-----3----|-------|-------|-------|-------|-------|--------|--------|


|-------|-------|-------|-------|-------|------|--------|--------|-------|-------|
|--9----|--7----|--5----|--10---|--15---|--12--|--(12)--|--(12)--|--12---|--4----|
|--9----|--7----|--7----|--11---|--14---|--12--|--(12)--|--(12)--|--12---|--5----|
|--11---|-------|-------|--12---|--16---|--12--|--(12)--|--(12)--|--12---|--5----|
|-------|-------|-------|-------|-------|------|--------|--------|-------|-------|
|-------|-------|-------|-------|-------|------|--------|--------|-------|-------|


|-------|-------|-------|------|--------|--------|-------|-------|-------|-------|
|--3----|--4----|--6----|--13--|--(13)--|--(13)--|--13---|--11---|--9----|--14---|
|--5----|--5----|--5----|--13--|--(13)--|--(13)--|--13---|--11---|--11---|--15---|
|--5----|--5----|--5----|--15--|--(15)--|--(15)--|--15---|-------|-------|-------|
|-------|-------|-------|------|--------|--------|-------|-------|-------|-------|
|-------|-------|-------|------|--------|--------|-------|-------|-------|-------|


|-------|-------|--------|--------|-------|------------|-----------------10---|
|--11---|--12---|--(12)--|--(12)--|--12---|--12b--10---|--------------10------|
|--11---|--11---|--(11)--|--(11)--|--11---|------------|-----------11---------|
|--11---|-------|--------|--------|-------|------------|--------11------------|
|-------|-------|--------|--------|-------|------------|----------------------|
|-------|-------|--------|--------|-------|------------|----------------------|


|--9-------------------|-----------------8----|
|--------10----11b-----|--9-----------10------|
|----------------------|-----------9----------|
|----------------------|--------11------------|
|----------------------|----------------------|
|----------------------|----------------------|


|--9-----10----9-----9--10-9-------------|--9-------------------|
|--------------------------------12------|-----10-12------------|
|----------------------------------------|-----------11b--------|
|----------------------------------------|----------------------|
|----------------------------------------|----------------------|
|----------------------------------------|----------------------|

                                               PM--------------------|
|----------------------|----------------------|----------------------|
|-----------10-12-10---|-----------14-14-14---|----------------------|
|--11----11------------|--13-------13-13-13---|--11-11-11------------|
|----------------------|----------------------|-----------11-11-11---|
|----------------------|----------------------|----------------------|
|----------------------|----------------------|----------------------|

 PM------------------------------------------------------------------|
|----------------------|----------------------|----------------------|
|----------------------|----------------------|----------------------|
|----------------------|----------------------|----------------------|
|--9--9--9-------------|--11-11-11-9--9--9----|----------------------|
|-----------12-12-12---|----------------------|--12-12-12-11-11-11---|
|----------------------|----------------------|----------------------|

 PM------------------------------------------------------------------|
|----------------------|----------------------|----------------------|
|----------------------|----------------------|----------------------|
|----------------------|----------------------|--11-11-11------------|
|--12-12-12-9--9--9----|----------------------|-----------11-11-11---|
|----------------------|--12-12-12-11-11-11---|----------------------|
|----------------------|----------------------|----------------------|

 PM------------------------------------------------------------------|
|----------------------|----------------------|----------------------|
|----------------------|----------------------|----------------------|
|----------------------|--13-13-13------------|----------------------|
|--9--9--9-------------|-----------12-12-12---|----------------------|
|-----------9--9--9----|----------------------|--12-12-12-11-11-11---|
|----------------------|----------------------|----------------------|

 PM------------------------------------------------------------------|
|----------------------|----------------------|----------------------|
|----------------------|----------------------|----------------------|
|--13-13-13------------|----------------------|--13-13-13------------|
|-----------12-12-12---|----------------------|-----------12-12-12---|
|----------------------|--12-12-12-11-11-11---|----------------------|
|----------------------|----------------------|----------------------|


 PM------------------------------------------------------------------|
|----------------------|----------------------|----------------------|
|----------------------|----------------------|----------------------|
|----------------------|--13-13-13------------|----------------------|
|----------------------|-----------12-12-12---|----------------------|
|--12-12-12-11-11-11---|----------------------|--12-12-12-11-11-11---|
|----------------------|----------------------|----------------------|


|----------------------|----------------------|----------------------|
|--11-x--x-------------|----------------------|--11-x--x-------------|
|-----------9--x--x----|----------------------|-----------9--x--x----|
|----------------------|--9--x--x--8--x--x----|----------------------|
|----------------------|----------------------|----------------------|
|----------------------|----------------------|----------------------|


|----------------------|----------------------|----------------------|
|----------------------|--11-x--x-------------|----------------------|
|----------------------|-----------9--x--x----|----------------------|
|--9--x--x--8--x--x----|----------------------|--9--x--x--8--x--x----|
|----------------------|----------------------|----------------------|
|----------------------|----------------------|----------------------|


|----------------------|----------------------|----------------------|
|--11-x--11------------|----------------------|----------------------|
|-----------9--x--9----|----------------------|--8--8--8-------------|
|----------------------|--9--x--9--8--x--x----|-----------6--6--6----|
|----------------------|----------------------|----------------------|
|----------------------|----------------------|----------------------|


|----------------------|----------------------|----------------------|
|----------------------|----------------------|----------------------|
|----------------------|--8--8--8-------------|----------------------|
|----------------------|-----------6--6--6----|----------------------|
|--7--7--7--6--6--6----|----------------------|--7--7--7--6--6--6----|
|----------------------|----------------------|----------------------|


|----------------------|----------------------|----------------------|
|----------------------|----------------------|----------------------|
|--8--8--8-------------|----------------------|--8--8--8-------------|
|-----------6--6--6----|----------------------|-----------6--6--6----|
|----------------------|--7--7--7--6--6--6----|----------------------|
|----------------------|----------------------|----------------------|


|----------------------|----------------------|----------------------|
|----------------------|----------------------|----------------------|
|----------------------|----------------------|----------------------|
|----------------------|----------------------|----------------------|
|--7--7--7--6--6--6----|-----6--------6-------|-----6--------7-------|
|----------------------|--4-----4--7-----7----|--6-----6--5-----5----|


|----------------------|----------------------|----------------------|
|----------------------|----------------------|----------------------|
|----------------------|----------------------|----------------------|
|----------------------|----------------------|----------------------|
|-----6--------9-------|-----8--------5-------|-----6--------6-------|
|--4-----4--7-----7----|--6-----6--3-----3----|--4-----4--7-----7----|


|----------------------|----------------------|----------------------|-------|
|----------------------|----------------------|----------------------|-------|
|----------------------|----------------------|----------------------|--4----|
|----------------------|----------------------|----------------------|--6----|
|-----6--------7-------|-----6--------9-------|-----8--------5-------|-------|
|--6-----6--5-----5----|--4-----4--7-----7----|--6-----6--3-----3----|-------|


|-------|-------|-------|------|--------|--------|-------|-------|-------|-------|
|-------|-------|-------|--9---|--(9)---|--(9)---|--9----|--7----|--5----|--10---|
|--3----|--4----|--6----|--9---|--(9)---|--(9)---|--9----|--7----|--7----|--11---|
|--6----|--6----|--6----|--11--|--(11)--|--(11)--|--11---|-------|-------|--12---|
|-------|-------|-------|------|--------|--------|-------|-------|-------|-------|
|-------|-------|-------|------|--------|--------|-------|-------|-------|-------|


|-------|------|--------|--------|-------|-------|-------|-------|-------|------|
|--15---|--8---|--(8)---|--(8)---|--8----|--4----|--3----|--4----|--6----|--13--|
|--14---|--7---|--(7)---|--(7)---|--7----|--5----|--5----|--5----|--5----|--13--|
|--16---|--9---|--(9)---|--(9)---|--9----|--5----|--5----|--5----|--5----|--15--|
|-------|------|--------|--------|-------|-------|-------|-------|-------|------|
|-------|------|--------|--------|-------|-------|-------|-------|-------|------|


|--------|--------|-------|-------|-------|-------|-------|------|--------|--------|
|--(13)--|--(13)--|--13---|--11---|--9----|--14---|--11---|--12--|--(12)--|--(12)--|
|--(13)--|--(13)--|--13---|--11---|--11---|--15---|--11---|--11--|--(11)--|--(11)--|
|--(15)--|--(15)--|--15---|-------|-------|-------|--11---|------|--------|--------|
|--------|--------|-------|-------|-------|-------|-------|------|--------|--------|
|--------|--------|-------|-------|-------|-------|-------|------|--------|--------|


|-------|----------------------|----------------------|----------------------|
|--12---|----------------------|----------------------|----------------------|
|--11---|----------------------|----------------------|----------------------|
|-------|----------------------|----------------------|----------------------|
|-------|-----6--------6-------|-----6--------7-------|-----6--------9-------|
|-------|--4-----4--7-----7----|--6-----6--5-----5----|--4-----4--7-----7----|


|----------------------|----------------------|----------------------|
|----------------------|----------------------|----------------------|
|----------------------|----------------------|----------------------|
|----------------------|----------------------|----------------------|
|-----8--------5-------|-----6--------6-------|-----6--------7-------|
|--6-----6--3-----3----|--4-----4--7-----7----|--6-----6--5-----5----|


|----------------------|----------------------|----||
|----------------------|----------------------|----||
|----------------------|----------------------|----||
|----------------------|----------------------|----||
|-----6--------9-------|-----8--------5-------|----||
|--4-----4--7-----7----|--6-----6--3-----3----|----||
Tap to rate this tab
 
# A B C D E F G H I J K L M N O P Q R S T U V W X Y Z