Strokes - Life Is Simple In The Moonlight tab

-------------------------------------------------------------------------------
	LIFE IS SIMPLE IN THE MOONLIGHT - THE STROKES
-------------------------------------------------------------------------------
Tabbed by:Chris Warner
Email:cwarner3000@gmail.com

Tuning:E

Intro
   X-------------------------------------------------------------------------|palm mute strings
e|---------------------------------------------------------------------------|
B|---------------------------------------------------------------------------|
G|-------6-----6---6-------------11-----11----11------8----8---8-----6---6---|
D|-----4-----4-----------------9------9-------------6----6---------6----6----|
A|---5-----5-----5---/slide-10-----10------10-----7----7-----7---7----7---7--|
E|---------------------------------------------------------------------------|
Guitar 1
"Animals on TV singing about something that they once felt.."


e|----9----9---9-----------14----14---14----11--11-11---9---9--9------------|
B|---7----7--------------12----12----------9---9-------9---9----------------|
G|--7----7----7-/slide-12----12-----12---9----9---9---9---9--9--------------|
D|--------------------------------------------------------------------------|
A|--------------------------------------------------------------------------|
E|--------------------------------------------------------------------------|
Guitar 2


bridge D       E
e|-----10------12--------------------------------------------------------------|
B|-----10------12--------------------------------------------------------------|
G|-----12------13--------------------------------------------------------------|
D|-------------14--------------------------------------------------------------|
A|-----------------------------------------------------------------------------|
E|-----------------------------------------------------------------------------|
"Animals on TV singing about something they felt at some point..."

Chorus
   Bm      A     F#m     E            Bm     E     A     D
e|--7------5-----14------7-------------7-----------5---------------------------|
B|--7------5-----10------9-------------7-----9-----5-----7---------------------|
G|--7------6-----11------9-------------7-----9-----6-----7---------------------|
D|--9------7-----11------9-------------9-----9-----7-----7---------------------|
A|--9------7-----9-------7-------------9-----7-----7-----5----4----------------|
E|--7------5---------------------------7-----------5---------------------------|
"So we talked about ourselves and how.."


Alot of people already tabbed the solo so Im not going to...

I tabbed this from there SNL performance which rocked!

************************************

| /   slide up
| \   slide down
| h   hammer-on
| p   pull-off
| ~   vibrato
| +   harmonic
| x   Mute note
| b   Bend
| pb  Pre-bend
| br  Bend release
| pbr Pre-bend release
| brb Bend release bend

************************************
Tap to rate this tab
 
# A B C D E F G H I J K L M N O P Q R S T U V W X Y Z