Song name
# A B C D E F G H I J K L M N O P Q R S T U V W X Y Z

Strokes - Is This It tab

Off their debut album Is This It (2000)
Great song, great band, great album

Intro/Verse 1:
|------------------------------------------------|
|------10----10---10---10----10----10---10---10--|
|---10----10----9----7----10----10----9----7-----|
|------------------------------------------------|
|------------------------------------------------|
|------------------------------------------------|

Chorus:
 Gtr. 1
  F                              C
|-------------------------|    |-8--8--8--8--8--8--8--8--|
|-10-10-10-10-10-10-10-10-|    |-8--8--8--8--8--8--8--8--|
|-10-10-10-10-10-10-10-10-|x2  |-9--9--9--9--9--9--9--9--|x2
|-10-10-10-10-10-10-10-10-|    |-10-10-10-10-10-10-10-10-|
|-8--8--8--8--8--8--8--8--|    |-10-10-10-10-10-10-10-10-|
|-------------------------|    |-8--8--8--8--8--8--8--8--|
|Gtr. 2
|-----------------------------------|--------------------------------|
|---6---6---6---6---6---6---6---6---|5---5---5---5---5---5---5---5---|
|-----7---7---7---7---7---7---7---7-|--7---7---7---7---7---7---7---7-|
|-----------------------------------|--------------------------------|
|-----------------------------------|--------------------------------|
|-----------------------------------|--------------------------------|
|Bass:
|-----------------------------------|--------------------------------|
|-----------------------------------|--------------------------------|
|-----------------------------------|3-3-3-3-3-3-3-3-3-3-3-3-3-3-3-3-|
|---1-1-1-1-1-1-1-1-1-1-1-1-1-1-1-1-|--------------------------------|

Verse 2:
Gtr. 2 part is the same as Verse 1
 Bass:
|------------------------------------------------|
|---------------2-3-5----------------------2-----|
|-------0----------------------0-------3-5-------|
|---1-1---1--1-------------1-1---1--1------------|

|--------------------------------------0-2-3-------|
|-------0-------2-3-5----------0-------------------|
|---1-1---1--1-------------1-1---1--1--------------|
|--------------------------------------------------|

Bridge:
 Gtr. 1
|-8--8--8--8--8--8--8--8--|    |-------------------------|
|-8--8--8--8--8--8--8--8--|    |-10-10-10-10-10-10-10-10-|
|-9--9--9--9--9--9--9--9--|x2  |-10-10-10-10-10-10-10-10-|x2
|-10-10-10-10-10-10-10-10-|    |-10-10-10-10-10-10-10-10-|
|-10-10-10-10-10-10-10-10-|    |-8--8--8--8--8--8--8--8--|
|-8--8--8--8--8--8--8--8--|    |-------------------------|
|Bass:
|-------------------------|    |---------------------------|
|-------------------------|x2  |---------------------------|
|-3--3-----3--------------|    |---------------------------|
|-------------------------|    |--1--1-----1---------------|

Chorus 2:
Bass
|-------------------------------------|-------------------------------------|
|-------------------------------------|-------------------------------------|
|------------------------------1----0-|---3---------------------------------|
|---1--1----1-----1--1----1-----------|-------------------------------------|

Outro:
Gtr. 2
|-----------------------------|
|---11-11-11-11-11--11---11---|
|---10-10-10-10-10--10---10---|
|----8--8--8--8--8---8----8---|
|-----------------------------|
|-----------------------------|
| Bass
|-----------------------------|
|-----------------------------|
|-----------------------------|
|----6--6--6--6--6---6----6---|

 I recorded the entire song with guitar and bass parts on garageband yesterday and 
this sounded  right

Credit to the other people who tabbed this because I used some of their tab as the base for this,
but made some alterations to the bits I thought were wrong, like the chorus, the bridge 
and the bass part. Enjoy :)
Tap to rate this tab
 
# A B C D E F G H I J K L M N O P Q R S T U V W X Y Z