Strokes - Games tab

-------------------------------------------------------------------------------
			     Games – The Strokes
-------------------------------------------------------------------------------
Tabbed by: HALO_18

Tuning: Standard


Intro	0:00-0:15 

e|-8----------10-----------8-----------------7-------------------------------|
B|-7-x4-------7-x4---------7-x4--------------8-x4----------------------------|
G|-9----------9------------9-----------------9-------------------------------|
D|---------------------------------------------------------------------------|
A|---------------------------------------------------------------------------|
E|---------------------------------------------------------------------------|



Verse 1 & 2 (play as required)
e|---------------------------------------------------------------------------|
B|---------------------------------------------------------------------------|
G|---------------------------------------------------------------------------|
D|----7-----7-----5----3---2\------------------------------------------------|
A|---------------------------------------------------------------------------|
E|---------------------------------------------------------------------------|


Chorus x2
   Living…     World…      Living…          World…
e|-8----------10-----------8-----------------7-------------------------------|
B|-7----------7------------7-----------------8-------------------------------|
G|-9----------9------------9-----------------9-------------------------------|
D|---------------------------------------------------------------------------|
A|---------------------------------------------------------------------------|
E|---------------------------------------------------------------------------|







Part after second chorus (played on keyboard but I transcribed it for guitar.)

Play variations of Part A and Part B


Part A
e|---------------------------------------------------------------------------|
B|---------------------------------------------------------------------------|
G|--7-7-7-7--5----4-----------------5-5-5-5--4---2---------------------------|
D|---------------------------------------------------------------------------|
A|---------------------------------------------------------------------------|
E|---------------------------------------------------------------------------|


Part B
e|---------------------------------------------------------------------------|
B|---------------------------------------------------------------------------|
G|--7-7-7-7--5----4---4\9--9--10--9----------5-5-5-5---4---2---2-2--4\5--2---|
D|---------------------------------------------------------------------------|
A|---------------------------------------------------------------------------|
E|---------------------------------------------------------------------------|

Outro
e|---------------------------------------------------------------------------|
B|---------------------------------------------------------------------------|
G|-77--77--7-9—10\14--14--16--14---5-5-5-5---4--2-----2-2-2-2----------------|
D|-------------------------------------------------------------5--2-----2-2-2|
A|---------------------------------------------------------------------------|
E|---------------------------------------------------------------------------|

e|---------------------------------------------------------------------------|
B|---------------------------------------------------------------------------|
G|---------------------------------------------------------------------------|
D|2--------------------2-----------------------------------------------------|
A|----5—3---3-3-3-3-2--0---HOLD----------------------------------------------|
E|---------------------------------------------------------------------------|








Song Structure

Intro
Verse
Chorus
Intro
Verse
Outro

************************************

| /   slide up
| \   slide down
| h   hammer-on
| p   pull-off
| ~   vibrato
| +   harmonic
| x   Mute note
| b   Bend
| pb  Pre-bend
| br  Bend release
| pbr Pre-bend release
| brb Bend release bend

************************************
Tap to rate this tab
 
# A B C D E F G H I J K L M N O P Q R S T U V W X Y Z