Song name
# A B C D E F G H I J K L M N O P Q R S T U V W X Y Z

Strokes - Ze Newie tab

  Intro
E|-------------|
B|-------------|
G|-------------|
D|-------------|
A|-12-12-12-12-|
E|-------------|
  
  Riff 1
E|--------------------------------------------------------------|
B|------10--------10--------10--------10--------10--------10----|
G|----9----9----9----9----9----9----9----9----9----9----9----9--|
D|-11--------11--------11--------11--------11--------11---------|
A|--------------------------------------------------------------|
E|--------------------------------------------------------------|
  
  Riff 2		Riff 3
E|---------------------|---------------------------------|
B|-----10-------10-----|-----7-------7-------7------7----|
G|---9----9---9----9---|---7---7---7---7---7---7--7---7--|
D|-9--------9----------|-9-------9-------9------9--------|
A|---------------------|---------------------------------|
E|---------------------|---------------------------------|

  Riff 4
E|----------------------------------------------|
B|------9-------9--------9-------9--------9-----|
G|----9--9----9---9----9--9----9---9----9---9---|
D|-11------11-------11------11-------11---------|
A|----------------------------------------------|
E|----------------------------------------------|

  Riff 5
E|---------------------------------------|
B|---------------------------------------|
G|--9-9-9-9-9-9-9--14-14-14-14-14-14-14--|
D|--7-7-7-7-7-7-7--12-12-12-12-12-12-12--|
A|---------------------------------------|
E|---------------------------------------|

  Riff 6
E|------------------------------------------------------7---7---7---7-----|
B|--10---10---10---10---9---9---9---9---7---7---7---7-----9---9---9---9---|
G|-----9----9----9----9---9---9---9---9---7---7---7---7-------------------|
D|------------------------------------------------------------------------|
A|------------------------------------------------------------------------|
E|------------------------------------------------------------------------|
  
  Solo (I'm not a good solo player so I don't tab solos, but i think 
        this is how it starts)
E|-------------------------------------------|
B|-----5-----5-----5-----5-----5----5--5/6-6-|
G|-5h6---5h6---5h6---5h6---5h6--5h6----------|
D|-------------------------------------------|
A|-------------------------------------------|
E|-------------------------------------------|
	
Tap to rate this tab
 
# A B C D E F G H I J K L M N O P Q R S T U V W X Y Z