Song name
# A B C D E F G H I J K L M N O P Q R S T U V W X Y Z

Strokes - You Only Live Once Acoustic tab

-----------------------------------------------------------------------------
	     YOU ONLY LIVE ONCE - The Strokes
-----------------------------------------------------------------------------
Tabbed by: Ikuto Kuroi
Email: Javo_1992_1@hotmail.com

Tuning: Standard


Intro.
 (palm-muted)       x 4
E||--------------------|
B||--------------------|
G||--------------------|
D||--9-99-9-9-9-9-9-9--|
A||--7-77-7-7-7-7-7-7--|
E||--------------------|

Verse 1.
E||-x-9-99-99-x-7-x-7-x-77-x-7-x-|
B||-x-9-99-99-x-9-x-9-x-99-x-9-x-|
G||-x-9-99-99-x-9-x-9-x-99-x-9-x-|
D||------------------------------|
A||------------------------------|
E||------------------------------|

E||-x-9-99-99-x-6-x-6-x-66-x-6-x-|
B||-x-7-77-77-x-7-x-7-x-77-x-7-x-|
G||-x-8-88-88-x-5-x-5-x-55-x-5-x-|    X6
D||------------------------------|
A||------------------------------|
E||------------------------------|

Verse 2
E||-44-x-7-x-11-x-9---9--9--9--9--9--9--9--9\2------|  
B||-55-x-9-x-12-x-11--11-11-11-11-11-11-11-11\4-----|  
G||-66-x-9-x-13-x-11--11-11-11-11-11-11-11-11\4-----|             
D||-------------------------------------------------|           
A||-------------------------------------------------|
E||-------------------------------------------------|

E||-22-x-6-x-9--x-7-777777-x-----------|
B||-44-x-7-x-11-x-9-999999-x-----------|
G||-44-x-8-x-11-x-9-999999-x-----------|       X2
D||------------------------------------|
A||------------------------------------|
E||------------------------------------|


Chorus (play it like Verse 2)

E||------------------------------------------------|
B||------------------------------------------------|
G||---------9-x-13-x-11--11-11-11-11-11-11-11-11\---|   X2 (2 endings)
D||-11-11-x-9-x-13-x-11--11-11-11-11-11-11-11-11\---|
A||-11-11-x-7-x-11-x-9---9--9--9--9--9--9--9--9\----|
E||-9--9--x----------------------------------------|

First ending
E||--------------------------------|
B||--------------------------------|
G||------8-x-11-x-9-999999---------|      
D||-99-x-8-x-11-x-9-999999---------|
A||-99-x-6-x-9--x-7-777777---------|
E||-77-x---------------------------|

Second ending
E||--------------------------------|
B||--------------------------------|
G||------8-x-11-x-9-x--------------|      
D||-99-x-8-x-11-x-9-x--------------|
A||-99-x-6-x-9--x-7-x--------------|
E||-77-x---------------------------|


Repeat Verse 1

Repeat Verse 2

Repeat Chorus reapeating first ending x2

End
E||----11------11------|--11--|
B||--------12------12--|--12--|
G||--11--11--11--11----|--11--|
D||--------------------|------|
A||--------------------|------|
E||--------------------|------|



Or Repeat Until The End

--11--|
--12--|
--11--|
------|
------|
------|

************************************

| /   slide up
| \   slide down
| h   hammer-on
| p   pull-off
| ~   vibrato
| +   harmonic
| x   Mute note
| b   Bend
| pb  Pre-bend
| br  Bend release
| pbr Pre-bend release
| brb Bend release bend

************************************

Enjoy.
Tap to rate this tab
# A B C D E F G H I J K L M N O P Q R S T U V W X Y Z