Song name
# A B C D E F G H I J K L M N O P Q R S T U V W X Y Z

Strokes - Last Night Acoustic tab

The Strokes  Last Night (Solo Tab) for acoustic by szs315
----------------------------------------------------
b = bend to this note
/  = slide
x  = dead note
x2 = play entire section twice
p = pull off

e|-13b15---13p11----11---13b15--13b11-------11-------|
B|---------------13---------------------13-----------|
G|---------------------------------------------------|
D|---------------------------------------------------|
A|---------------------------------------------------|
E|---------------------------------------------------|

e|--/11----10----------------------------------------|
B|------10-----------11-11b13---11b1313-11b1313--11--|       x2
G|------------12-------------------------------------|
D|---------------------------------------------------|
A|---------------------------------------------------|
E|---------------------------------------------------|

e|---------------------------------------------------|
B|---------------------------------------------------|
G|--8p5--8p5--8p5--8p5--8p5--------------------------|
D|---------------------------------------------------|
A|---------------------------------------------------|
E|---------------------------------------------------|

Strum G chord 5 times

      G
e|-----x------10b12---10b12---10b12-------0----------|
B|----12---------------------------------------------|
G|----12---------------------------------------------|
D|----12---------------------------------------------|
A|---------------------------------------------------|
E|---------------------------------------------------|
Tap to rate this tab
# A B C D E F G H I J K L M N O P Q R S T U V W X Y Z