Song name
# A B C D E F G H I J K L M N O P Q R S T U V W X Y Z

Strokes - Under Cover Of Darkness tab

-------------------------------------------------------------------------------
		     Under Cover of Darkness - The Strokes
-------------------------------------------------------------------------------
Tabbed by:Matt Xiong
Email:kakashinomatt0123@yahoo.com

Tuning: Standard

I'm 90% sure that this is exactly how both Nick and Albert play this song. Sorry
if I screw up, but it's my first tab. Also, timing will probably be off, so listen 
to the song to get it right.

--------------------------------------------------------------------------------

Nick Valensi


Intro Riff

e|11--11-----------------11--11----------------|
B|12--12----16~----------12--12----16~---------|
G|11--11-------15----15--11--11-------15----15-|
D|----------------16---------------------16----|
A|---------------------------------------------|
E|---------------------------------------------|

e|-12--12-------------------------12--12-----------------------|
B|-14--14----17-17--16-16--14-12--14--14-----------------------|
G|-13--13-------------------------13--13----16h18-16--------16-|
D|------------------------------------------------16--16/18----|
A|-------------------------------------------------------------|
E|-------------------------------------------------------------|


e|11--11--------------------11--11----17b19-14-16------|
B|12--12----15b17-16-14-----12--12----------------16---|
G|11--11----------------16--11--11---------------------|
D|-----------------------------------------------------|
A|-----------------------------------------------------|
E|-----------------------------------------------------|

e|---12--12----16-16--14-14--12-11--12--12----------16-------------|
B|---14--14----17-17--16-16--14-12--14--14----16p17-16--------16---|
G|---13--13-------------------------13--13--------------16/18------|
D|-----------------------------------------------------------------|
A|-----------------------------------------------------------------|
E|-----------------------------------------------------------------|

First Verse

e|----------------------------------------------|
B|----------------------------------------------|
G|----------------------------------------------|
D|---------------9-------7--------------7-------|
A|-------------------6-9---9-6------6-9---9-6---|
E|7-7-7-7-7-7-7-7--7-----------7--7-----------7-|
  PM.............

e|-----------------------------------------------------------------------|
B|-----------------------------------------------------------------------|
G|-----------------------------------------------------------------------|
D|-------------------------13----------11--------------------11----------|
A|----------------------------------13----13--------------13----13-------|
E|11-11-11-11-11-11-11-11-----11-14----------14-11--11-14----------14-11-|
  PM.............

e|----------------------------------------------|
B|----------------------------------------------|
G|----------------------------------------------|
D|---------------6-------4--------------4-------|
A|---------------------6---6----------6---6-----|
E|4-4-4-4-4-4-4-4--4-7-------7-4--4-7-------7-4-|
  PM.............

e|---------------------------------------|
B|---------------------------------------|
G|---------------------------------------|
D|----------------/6--\--4---------------|
A|-------------------------/--4--\--2----|
E|0-0-0-0-0-0-0-0------------------------|
  PM.............

e|----------------------------------------------|
B|----------------------------------------------|
G|----------------------------------------------|
D|---------------9-------7--------------7-------|
A|-------------------6-9---9-6------6-9---9-6---|
E|7-7-7-7-7-7-7-7--7-----------7--7-----------7-|
   PM............

e|----------------------------------------------|
B|----------------------------------------------|
G|---------------8-------6--------------6-------|
D|---------------------8---8----------8---8-----|
A|6-6-6-6-6-6-6-6--6-9-------9-6--6-9-------9-6-|
E|----------------------------------------------|
  PM.............

e|-----------------------------------------------------------------|
B|-----------------------------------------------------------------|
G|-----------------------------------------------------------------|
D|-----------------------------------------------------------------|
A|2-2-2-2/4-4-4-4/6-6-6-6------------------------------------------|
E|-----------------------\4-4-4-4/7-7-7-7-7-7-7-7-7-7-7-7-7-7-7-7--|
                                  PM.............................   

First Chorus

On this part, play short notes (not sure how else to put it).

e|----2------2-----2------2-----4------4-----4------4--|
B|-4--x-4--4-x--4--x-4--4-x--5--x-5--5-x--5--x-5--5-x--|
G|-4--4-4--4-4--4--4-4--4-4--4--4-4--4-4--4--4-4--4-4--|
D|-----------------------------------------------------|
A|-----------------------------------------------------|
E|-----------------------------------------------------|

e|----2------2-----2------2-----2------2-----2------2--|
B|-4--x-4--4-x--4--x-4--4-x--2--x-2--2-x--2--x-2--2-x--|
G|-4--4-4--4-4--4--4-4--4-4--4--4-4--4-4--4--4-4--4-4--|
D|-----------------------------------------------------|
A|-----------------------------------------------------|
E|-----------------------------------------------------|

e|----2------2-----2------2-----4------4-----4------4--|
B|-4--x-4--4-x--4--x-4--4-x--5--x-5--5-x--5--x-5--5-x--|
G|-4--4-4--4-4--4--4-4--4-4--4--4-4--4-4--4--4-4--4-4--|
D|-----------------------------------------------------|
A|-----------------------------------------------------|
E|-----------------------------------------------------|

e|----2------2-----2------2-----2------2-----2-2--2-2--|
B|-4--x-4--4-x--4--x-4--4-x--2--x-2--2-x--2--2-2--2-2--|
G|-4--4-4--4-4--4--4-4--4-4--4--4-4--4-4--4--4-4--4-4--|
D|-----------------------------------------------------|
A|-----------------------------------------------------|
E|-----------------------------------------------------|
                                             ^let notes ring

On this part, let the notes ring.


e|----2------2-----2------2-----4------4-----4------4--|
B|-4--x-4--4-x--4--x-4--4-x--5--x-5--5-x--5--x-5--5-x--|
G|-4--4-4--4-4--4--4-4--4-4--4--4-4--4-4--4--4-4--4-4--|
D|-----------------------------------------------------|
A|-----------------------------------------------------|
E|-----------------------------------------------------|

e|----2------2-----2------2--2--2-2--2-2--2--2-2--2-2--|
B|-4--x-4--4-x--4--x-4--4-x--2--2-2--2-2--2--2-2--2-2--|
G|-4--4-4--4-4--4--4-4--4-4--4--4-4--4-4--3--3-3--3-3--|
D|-----------------------------------------------------|
A|-----------------------------------------------------|
E|-----------------------------------------------------|

e|-2--2-2--2-2--2--2-2--2-2--4--4-4--4-4--6--6-6--6-6--|
B|-4--4-4--4-4--4--4-4--4-4--5--5-5--5-5--5--5-5--5-5--|
G|-4--4-4--4-4--4--4-4--4-4--4--4-4--4-4--4--4-4--4-4--|
D|-----------------------------------------------------|
A|-----------------------------------------------------|
E|-----------------------------------------------------|

e|-7--7-7--7-7--7--7-7--7-7--7--7-7--7-7--7--7-7--7-7--|
B|-7--7-7--7-7--7--7-7--7-7--7--7-7--7-7--7--7-7--7-7--|
G|-8--8-8--8-8--8--8-8--8-8--6--6-6--6-6--6--6-6--6-6--|
D|-----------------------------------------------------|
A|-----------------------------------------------------|
E|-----------------------------------------------------|


Intro Riff Repeat

e|11--11--------------------11--11----17b19-14-16------|
B|12--12----15b17-16-14-----12--12----------------16---|
G|11--11----------------16--11--11---------------------|
D|-----------------------------------------------------|
A|-----------------------------------------------------|
E|-----------------------------------------------------|

e|---12--12----16-16--14-14--12-11--12--12----------16-------------|
B|---14--14----17-17--16-16--14-12--14--14----16p17-16--------16---|
G|---13--13-------------------------13--13--------------16/18------|
D|-----------------------------------------------------------------|
A|-----------------------------------------------------------------|
E|-----------------------------------------------------------------|


Second Verse

e|----------------------------------------------|
B|----------------------------------------------|
G|----------------------------------------------|
D|---------------9-------7--------------7-------|
A|-------------------6-9---9-6------6-9---9-6---|
E|7-7-7-7-7-7-7-7--7-----------7--7-----------7-|
  PM.............

e|-----------------------------------------------------------------------|
B|-----------------------------------------------------------------------|
G|-----------------------------------------------------------------------| 
D|-------------------------13----------11--------------------11----------|
A|----------------------------------13----13--------------13----13-------|
E|11-11-11-11-11-11-11-11-----11-14----------14-11--11-14----------14-11-|
  PM.............

e|---------------------------------------------------------------|
B|---------------------------------------------------------------|
G|---------------------------------------------------------------|
D|---------------------------------------------------------------|
A|2-2-2-2/4-4-4-4/6-6-6-6/7-7-7-7--------------------------------|
E|-------------------------------\7-7-7-7-7-7-7-7-7-7-7-7-7-7-7-7|
                                  PM.............................  

Second Chorus

e|----2------2-----2------2-----4------4-----4------4--|
B|-4--x-4--4-x--4--x-4--4-x--5--x-5--5-x--5--x-5--5-x--|
G|-4--4-4--4-4--4--4-4--4-4--4--4-4--4-4--4--4-4--4-4--|
D|-----------------------------------------------------|
A|-----------------------------------------------------|
E|-----------------------------------------------------|

e|----2------2-----2------2-----2------2-----2------2--|
B|-4--x-4--4-x--4--x-4--4-x--2--x-2--2-x--2--x-2--2-x--|
G|-4--4-4--4-4--4--4-4--4-4--4--4-4--4-4--4--4-4--4-4--|
D|-----------------------------------------------------|
A|-----------------------------------------------------|
E|-----------------------------------------------------|

e|------------------------------4------4-----4------4--|
B|-4--4-5----4--4--4-5----4--5--5-5----5--5--5-5----5--|
G|-4--4-4----4--4--4-4----4--4--4-4----4--4--4-4----4--|
D|-----------------------------------------------------|
A|-----------------------------------------------------|
E|-----------------------------------------------------|
        ^R           ^R           ^R           ^R       R=Let these notes ring

e|----2------2-----2------2-----2------2--2--2-2--2-2--|
B|-4--x-4--4-x--4--x-4--4-x--2--x-2--2-x--2--2-2--2-2--|
G|-4--4-4--4-4--4--4-4--4-4--4--4-4--4-4--4--4-4--4-4--|
D|-----------------------------------------------------|
A|-----------------------------------------------------|
E|-----------------------------------------------------|
                                          ^Let notes ring

Again, let the notes ring from here.


e|----2------2-----2------2--4----4--4----4----4--4----|
B|-4--x-4--4-x--4--x-4--4-x--x--5-x--x-5--x--5-x--x-5--|
G|-4--4-4--4-4--4--4-4--4-4--4--4-4--4-4--4--4-4--4-4--|
D|-----------------------------------------------------|
A|-----------------------------------------------------|
E|-----------------------------------------------------|

e|-2----2--2----2----2--2----2--2-2--2-2--2--2-2--2-2--|
B|-x--4-x--x-4--x--4-x--x-4--2--2-2--2-2--2--2-2--2-2--|
G|-4--4-4--4-4--4--4-4--4-4--4--4-4--4-4--3--3-3--3-3--|
D|-----------------------------------------------------|
A|-----------------------------------------------------|
E|-----------------------------------------------------|

e|-2--2-2--2-2--2--2-2--2-2--4--4-4--4-4--6--6-6--6-6--|
B|-4--4-4--4-4--4--4-4--4-4--5--5-5--5-5--5--5-5--5-5--|
G|-4--4-4--4-4--4--4-4--4-4--4--4-4--4-4--4--4-4--4-4--|
D|-----------------------------------------------------|
A|-----------------------------------------------------|
E|-----------------------------------------------------|

e|-7--7-7--7-7--7--7-7--7-7--7--7-7--7-7--7--7-7--7-7--|
B|-7--7-7--7-7--7--7-7--7-7--7--7-7--7-7--7--7-7--7-7--|
G|-8--8-8--8-8--8--8-8--8-8--6--6-6--6-6--6--6-6--6-6--|
D|-----------------------------------------------------|
A|-----------------------------------------------------|
E|-----------------------------------------------------|


Solo

e|--------------------------------------------------------------------------|
B|------11-12---11-12-11--------11-12----11-12-11---------11-12---11-12-11--|
G|--9---------9----------9-/-11-------11----------11---9--------9----------9|
D|--------------------------------------------------------------------------|
A|--------------------------------------------------------------------------|
E|--------------------------------------------------------------------------|

e|--------9-----12--------------------11b12-11-\-2-/-7-/-12-|
B|-----11---12------16br14-12\-7-7/12-----------------------|
G|--8-------------------------------------------------------|
D|----------------------------------------------------------|
A|----------------------------------------------------------|
E|----------------------------------------------------------|

e|---------------------------------|
B|-9--11h12/14/16--14--------------|
G|--------------------16-15-13\11--|
D|---------------------------------|
A|---------------------------------|
E|---------------------------------|

e|----------------------------------------------------|
B|------11-12---11-12-11--------11-12----11-12-11-----|
G|--9---------9----------9-/-11-------11----------11--|
D|----------------------------------------------------|
A|----------------------------------------------------|
E|----------------------------------------------------|

e|--------------------------------|
B|----11-12---11-12-11------------|
G|-9--------9----------9--8~-\-6~-|
D|--------------------------------|
A|--------------------------------|
E|--------------------------------|



Final Chorus

Pretty much the same as the second chorus, but I'll put it here for the sake of my OCD.

e|----2------2-----2------2-----4------4-----4------4--|
B|-4--x-4--4-x--4--x-4--4-x--5--x-5--5-x--5--x-5--5-x--|
G|-4--4-4--4-4--4--4-4--4-4--4--4-4--4-4--4--4-4--4-4--|
D|-----------------------------------------------------|
A|-----------------------------------------------------|
E|-----------------------------------------------------|

e|----2------2-----2------2-----2------2-----2------2--|
B|-4--x-4--4-x--4--x-4--4-x--2--x-2--2-x--2--x-2--2-x--|
G|-4--4-4--4-4--4--4-4--4-4--4--4-4--4-4--4--4-4--4-4--|
D|-----------------------------------------------------|
A|-----------------------------------------------------|
E|-----------------------------------------------------|

e|------------------------------4------4-----4------4--|
B|-4--4-5----4--4--4-5----4--5--5-5----5--5--5-5----5--|
G|-4--4-4----4--4--4-4----4--4--4-4----4--4--4-4----4--|
D|-----------------------------------------------------|
A|-----------------------------------------------------|
E|-----------------------------------------------------|
        ^R           ^R           ^R           ^R       R=Let these notes ring

e|----2------2-----2------2-----2------2--2--2-2--2-2--|
B|-4--x-4--4-x--4--x-4--4-x--2--x-2--2-x--2--2-2--2-2--|
G|-4--4-4--4-4--4--4-4--4-4--4--4-4--4-4--4--4-4--4-4--|
D|-----------------------------------------------------|
A|-----------------------------------------------------|
E|-----------------------------------------------------|
                                          ^Let notes ring

Again, let the notes ring from here.


e|----2------2-----2------2--4----4--4----4----4--4----|
B|-4--x-4--4-x--4--x-4--4-x--x--5-x--x-5--x--5-x--x-5--|
G|-4--4-4--4-4--4--4-4--4-4--4--4-4--4-4--4--4-4--4-4--|
D|-----------------------------------------------------|
A|-----------------------------------------------------|
E|-----------------------------------------------------|

e|-2----2--2----2----2--2----2--2-2--2-2--2--2-2--2-2--|
B|-x--4-x--x-4--x--4-x--x-4--2--2-2--2-2--2--2-2--2-2--|
G|-4--4-4--4-4--4--4-4--4-4--4--4-4--4-4--3--3-3--3-3--|
D|-----------------------------------------------------|
A|-----------------------------------------------------|
E|-----------------------------------------------------|

e|-2--2-2--2-2--2--2-2--2-2--4--4-4--4-4--6--6-6--6-6--|
B|-4--4-4--4-4--4--4-4--4-4--5--5-5--5-5--5--5-5--5-5--|
G|-4--4-4--4-4--4--4-4--4-4--4--4-4--4-4--4--4-4--4-4--|
D|-----------------------------------------------------|
A|-----------------------------------------------------|
E|-----------------------------------------------------|

e|-7--7-7--7-7--7--7-7--7-7--7--7-7--7-7--7--7-7--7-7--|
B|-7--7-7--7-7--7--7-7--7-7--7--7-7--7-7--7--7-7--7-7--|
G|-8--8-8--8-8--8--8-8--8-8--6--6-6--6-6--6--6-6--6-6--|
D|-----------------------------------------------------|
A|-----------------------------------------------------|
E|-----------------------------------------------------|


The Ending

e|11--11--------------------|
B|12--12----15b17-16-14-----|
G|11--11----------------16--|
D|--------------------------|
A|--------------------------|
E|--------------------------|


-------------------------------------------------------------------------


Albert Hammond Jr.


Intro Riff

e|------------------------------------------------------|
B|----------16~--------------------16~------------------| 
G|-------------15----15---------------15----15----------|  
D|----------------16---------------------16-------------|  
A|14--14-----------------14--14-----------------16--16--|   
E|------------------------------------------------------|  
  					
e|------------------------------------------------------|  
B|--17-17--16-16--14---------------------16-------------| 
G|-------------------16------------16h18-16--------16---|
D|-------------------------------------------16/18------|  
A|-----------------------16--16-------------------------|
E|------------------------------------------------------|

Repeat


First Verse

e|--x-7-x-7----x-7-x-7----x-7-x-7----x-7-x-7--|
B|--x-7-x-7----x-7-x-7----x-7-x-7----x-7-x-7--|
G|--x-8-x-8----x-8-x-8----x-8-x-8----x-8-x-8--|
D|--------------------------------------------|
A|--------------------------------------------|
E|--------------------------------------------|

e|--x-6-x-6----x-6-x-6----x-6-x-6----x-6-x-6--|
B|--x-7-x-7----x-7-x-7----x-7-x-7----x-7-x-7--|
G|--x-8-x-8----x-8-x-8----x-8-x-8----x-8-x-8--|
D|--------------------------------------------|
A|--------------------------------------------|
E|--------------------------------------------|

e|--x-11-x-11----x-11-x-11----x-11-x-11----x-11-x-11--|
B|--x-12-x-12----x-12-x-12----x-12-x-12----x-12-x-12--|
G|--x-13-x-13----x-13-x-13----x-13-x-13----x-13-x-13--|
D|----------------------------------------------------|
A|----------------------------------------------------|
E|----------------------------------------------------|

e|--x-7-x-7----x-7-x-7----x-7-x-7----9-9-9-9-----|
B|--x-9-x-9----x-9-x-9----x-9-x-9----9-9-9-9-----|
G|--x-9-x-9----x-9-x-9----x-9-x-9----9-9-9-9-----|
D|-----------------------------------------------|
A|-----------------------------------------------|
E|-----------------------------------------------|

e|--x-7-x-7----x-7-x-7----x-7-x-7----x-7-x-7--|
B|--x-7-x-7----x-7-x-7----x-7-x-7----x-7-x-7--|
G|--x-8-x-8----x-8-x-8----x-8-x-8----x-8-x-8--|
D|--------------------------------------------|
A|--------------------------------------------|
E|--------------------------------------------|

e|--x-6-x-6----x-6-x-6----x-6-x-6----x-6-x-6--|
B|--x-7-x-7----x-7-x-7----x-7-x-7----x-7-x-7--|
G|--x-8-x-8----x-8-x-8----x-8-x-8----x-8-x-8--|
D|--------------------------------------------|
A|--------------------------------------------|
E|--------------------------------------------|

e|-7--7-7-7-7-7-7--9--9-9-9-9-9-9--7--7-7-7-7-7-7--9--9--9--9-|
B|-9--9-9-9-9-9-9--9--9-9-9-9-9-9--9--9-9-9-9-9-9--9--9--9--9-|
G|-9--9-9-9-9-9-9--9--9-9-9-9-9-9--9--9-9-9-9-9-9--9--9--9--9-|
D|------------------------------------------------------------|
A|------------------------------------------------------------|
E|------------------------------------------------------------|

e|-x-7-x-7----x-7-x-7----x-7-x-7----x-7-x-7--|
B|-x-7-x-7----x-7-x-7----x-7-x-7----x-7-x-7--|
G|-x-8-x-8----x-8-x-8----x-8-x-8----x-8-x-8--|
D|-------------------------------------------|
A|-------------------------------------------|
E|-------------------------------------------|


First Chorus

Short Notes...

e|-11--11-11--11-11--11--11-11--11-11--12--12-12--12-12--12--12-12--12-12-|
B|-12--12-12--12-12--12--12-12--12-12--12--12-12--12-12--12--12-12--12-12-|
G|-13--13-13--13-13--13--13-13--13-13--13--13-13--13-13--13--13-13--13-13-| 
D|-13--13-13--13-13--13--13-13--13-13--14--14-14--14-14--14--14-14--14-14-|  
A|-12--12-12--12-12--12--12-12--12-12--12--12-12--12-12--12--12-12--12-12-|  
E|------------------------------------------------------------------------|         
                                                                                   
e|-------------------------------------14--14-14--14-14--14--14-14--14-14-|    
B|-16--16-16--16-16--16--16-16--16-16--14--14-14--14-14--14--14-14--14-14-|  
G|-16--16-16--16-16--16--16-16--16-16--15--15-15--15-15--15--15-15--15-15-|   
D|-16--16-16--16-16--16--16-16--16-16--16--16-16--16-16--16--16-16--16-16-|  
A|-14--14-14--14-14--14--14-14--14-14--14--14-14--14-14--14--14-14--14-14-|
E|------------------------------------------------------------------------|

Repeat

Let these notes ring...


e|-11--11-11--11-11--11--11-11--11-11--12--12-12--12-12--12--12-12--12-12-|
B|-12--12-12--12-12--12--12-12--12-12--12--12-12--12-12--12--12-12--12-12-|
G|-13--13-13--13-13--13--13-13--13-13--13--13-13--13-13--13--13-13--13-13-| 
D|-13--13-13--13-13--13--13-13--13-13--14--14-14--14-14--14--14-14--14-14-|  
A|-12--12-12--12-12--12--12-12--12-12--12--12-12--12-12--12--12-12--12-12-|   
E|------------------------------------------------------------------------|    
                                                                              
e|-------------------------------------14--14-14--14-14--14--14-14--14-14-|    
B|-16--16-16--16-16--16--16-16--16-16--14--14-14--14-14--14--14-14--14-14-|  
G|-16--16-16--16-16--16--16-16--16-16--15--15-15--15-15--15--15-15--15-15-|  
D|-16--16-16--16-16--16--16-16--16-16--16--16-16--16-16--16--16-16--16-16-| 
A|-14--14-14--14-14--14--14-14--14-14--14--14-14--14-14--14--14-14--14-14-|
E|------------------------------------------------------------------------|

Repeat

Intro Riff


e|------------------------------------------------------|
B|----------16~--------------------16~------------------| 
G|-------------15----15---------------15----15----------|  
D|----------------16---------------------16-------------|  
A|14--14-----------------14--14-----------------16--16--|   
E|------------------------------------------------------|  
  					
e|------------------------------------------------------|  
B|--17-17--16-16--14---------------------16-------------| 
G|-------------------16------------16h18-16--------16---|
D|-------------------------------------------16/18------|  
A|-----------------------16--16-------------------------|
E|------------------------------------------------------|


Second Verse
e|--x-7-x-7----x-7-x-7----x-7-x-7----x-7-x-7--|
B|--x-7-x-7----x-7-x-7----x-7-x-7----x-7-x-7--|
G|--x-8-x-8----x-8-x-8----x-8-x-8----x-8-x-8--|
D|--------------------------------------------|
A|--------------------------------------------|
E|--------------------------------------------|

e|--x-6-x-6----x-6-x-6----x-6-x-6----x-6-x-6--|
B|--x-7-x-7----x-7-x-7----x-7-x-7----x-7-x-7--|
G|--x-8-x-8----x-8-x-8----x-8-x-8----x-8-x-8--|
D|--------------------------------------------|
A|--------------------------------------------|
E|--------------------------------------------|


e|-7--7-7-7-7-7-7--9--9-9-9-9-9-9--7--7-7-7-7-7-7--9-9-9-9-9-9-|
B|-9--9-9-9-9-9-9--9--9-9-9-9-9-9--9--9-9-9-9-9-9--9-9-9-9-9-9-|
G|-9--9-9-9-9-9-9--9--9-9-9-9-9-9--9--9-9-9-9-9-9--9-9-9-9-9-9-|
D|-------------------------------------------------------------|
A|-------------------------------------------------------------|
E|-------------------------------------------------------------|

e|-x-7-x-7----x-7-x-7----x-7-x-7----x-7-x-7--|
B|-x-7-x-7----x-7-x-7----x-7-x-7----x-7-x-7--|
G|-x-8-x-8----x-8-x-8----x-8-x-8----x-8-x-8--|
D|-------------------------------------------|
A|-------------------------------------------|
E|-------------------------------------------|


Second Chorus

Short Notes...

e|-11--11-11--11-11--11--11-11--11-11--12--12-12--12-12--12--12-12--12-12-|
B|-12--12-12--12-12--12--12-12--12-12--12--12-12--12-12--12--12-12--12-12-|
G|-13--13-13--13-13--13--13-13--13-13--13--13-13--13-13--13--13-13--13-13-| 
D|-13--13-13--13-13--13--13-13--13-13--14--14-14--14-14--14--14-14--14-14-|  
A|-12--12-12--12-12--12--12-12--12-12--12--12-12--12-12--12--12-12--12-12-|  
E|------------------------------------------------------------------------|         
                                                                                   
e|-------------------------------------14--14-14--14-14--14--14-14--14-14-|    
B|-16--16-16--16-16--16--16-16--16-16--14--14-14--14-14--14--14-14--14-14-|  
G|-16--16-16--16-16--16--16-16--16-16--15--15-15--15-15--15--15-15--15-15-|   
D|-16--16-16--16-16--16--16-16--16-16--16--16-16--16-16--16--16-16--16-16-|  
A|-14--14-14--14-14--14--14-14--14-14--14--14-14--14-14--14--14-14--14-14-|
E|------------------------------------------------------------------------|

Repeat

Let these notes ring...


e|-11--11-11--11-11--11--11-11--11-11--12--12-12--12-12--12--12-12--12-12-|
B|-12--12-12--12-12--12--12-12--12-12--12--12-12--12-12--12--12-12--12-12-|
G|-13--13-13--13-13--13--13-13--13-13--13--13-13--13-13--13--13-13--13-13-| 
D|-13--13-13--13-13--13--13-13--13-13--14--14-14--14-14--14--14-14--14-14-|  
A|-12--12-12--12-12--12--12-12--12-12--12--12-12--12-12--12--12-12--12-12-|   
E|------------------------------------------------------------------------|    
                                                                              
e|-------------------------------------14--14-14--14-14--14--14-14--14-14-|    
B|-16--16-16--16-16--16--16-16--16-16--14--14-14--14-14--14--14-14--14-14-|  
G|-16--16-16--16-16--16--16-16--16-16--15--15-15--15-15--15--15-15--15-15-|  
D|-16--16-16--16-16--16--16-16--16-16--16--16-16--16-16--16--16-16--16-16-| 
A|-14--14-14--14-14--14--14-14--14-14--14--14-14--14-14--14--14-14--14-14-|
E|------------------------------------------------------------------------|

Repeat

Solo

Sorry, but I have no clue how Albert plays this part so this is what I play...

e|------------------------------------------------------------------------------------|
B|------------------------------------------------------------------------------------|
G|-9---9--9---9--9--9---9---9--9---9--9--9---11--11-11--11-11-11--11--11-11--11-11-11-|
D|-11--11-11--11-11-11--11--11-11--11-11-11--13--13-13--13-13-13--13--13-13--13-13-13-|
A|-11--11-11--11-11-11--11--11-11--11-11-11--13--13-13--13-13-13--13--13-13--13-13-13-|
E|------------------------------------------------------------------------------------|

e|----------------------------------------------------------------|
B|-------------------------------------------7--7-7--7-7--7--7----|
G|-9---9--9---9--9--9---9---9--9---9--9--9---8--8-8--8-8--8--8----|
D|-11--11-11--11-11-11--11--11-11--11-11-11--9--9-9--9-9--9--9----|
A|-11--11-11--11-11-11--11--11-11--11-11-11-----------------------|
E|----------------------------------------------------------------|

e|-----------------------------------------|
B|-----------------------------------------|
G|-8-8-8-8-8-8-8-8-------------------------|
D|-9-9-9-9-9-9-9-9-8--8--8--8--8--8--8--8--|
A|-9-9-9-9-9-9-9-9-10-10-10-10-10-10-10-10-|
E|-7-7-7-7-7-7-7-7-7--7--7--7--7--7--7--7--|
  PM......................................

e|-----------------------------|
B|-----------------------------|
G|-8-8-8-8-8-8-8-8-------------|
D|-9-9-9-9-9-9-9-9-6-6-6-6-6---|
A|-9-9-9-9-9-9-9-9-6-6-6-6-6---|
E|-7-7-7-7-7-7-7-7-4-4-4-4-4---|
  PM......................

e|------------------------------------------------------------------------------------|
B|------------------------------------------------------------------------------------|
G|-9---9--9---9--9--9---9---9--9---9--9--9---11--11-11--11-11-11--11--11-11--11-11-11-|
D|-11--11-11--11-11-11--11--11-11--11-11-11--13--13-13--13-13-13--13--13-13--13-13-13-|
A|-11--11-11--11-11-11--11--11-11--11-11-11--13--13-13--13-13-13--13--13-13--13-13-13-|
E|------------------------------------------------------------------------------------|

e|----------------------------------------------------------------|
B|-------------------------------------------7--7-7--7--7--7-7--7-|
G|-9---9--9---9--9--9---9---9--9---9--9--9---8--8-8--8--6--6-6--6-|
D|-11--11-11--11-11-11--11--11-11--11-11-11--9--9-9--9--8--8-8--8-|
A|-11--11-11--11-11-11--11--11-11--11-11-11-----------------------|
E|----------------------------------------------------------------|


Final Chorus

Short Notes...

e|-11--11-11--11-11--11--11-11--11-11--12--12-12--12-12--12--12-12--12-12-|
B|-12--12-12--12-12--12--12-12--12-12--12--12-12--12-12--12--12-12--12-12-|
G|-13--13-13--13-13--13--13-13--13-13--13--13-13--13-13--13--13-13--13-13-| 
D|-13--13-13--13-13--13--13-13--13-13--14--14-14--14-14--14--14-14--14-14-|  
A|-12--12-12--12-12--12--12-12--12-12--12--12-12--12-12--12--12-12--12-12-|  
E|------------------------------------------------------------------------|         
                                                                                   
e|-------------------------------------14--14-14--14-14--14--14-14--14-14-|    
B|-16--16-16--16-16--16--16-16--16-16--14--14-14--14-14--14--14-14--14-14-|  
G|-16--16-16--16-16--16--16-16--16-16--15--15-15--15-15--15--15-15--15-15-|   
D|-16--16-16--16-16--16--16-16--16-16--16--16-16--16-16--16--16-16--16-16-|  
A|-14--14-14--14-14--14--14-14--14-14--14--14-14--14-14--14--14-14--14-14-|
E|------------------------------------------------------------------------|

Repeat

Let these notes ring...


e|-11--11-11--11-11--11--11-11--11-11--12--12-12--12-12--12--12-12--12-12-|
B|-12--12-12--12-12--12--12-12--12-12--12--12-12--12-12--12--12-12--12-12-|
G|-13--13-13--13-13--13--13-13--13-13--13--13-13--13-13--13--13-13--13-13-| 
D|-13--13-13--13-13--13--13-13--13-13--14--14-14--14-14--14--14-14--14-14-|  
A|-12--12-12--12-12--12--12-12--12-12--12--12-12--12-12--12--12-12--12-12-|   
E|------------------------------------------------------------------------|    
                                                                              
e|-------------------------------------14--14-14--14-14--14--14-14--14-14-|    
B|-16--16-16--16-16--16--16-16--16-16--14--14-14--14-14--14--14-14--14-14-|  
G|-16--16-16--16-16--16--16-16--16-16--15--15-15--15-15--15--15-15--15-15-|  
D|-16--16-16--16-16--16--16-16--16-16--16--16-16--16-16--16--16-16--16-16-| 
A|-14--14-14--14-14--14--14-14--14-14--14--14-14--14-14--14--14-14--14-14-|
E|------------------------------------------------------------------------|

Repeat


The Ending

e|-----------------------|
B|----------16~----------|
G|-------------15----15--|
D|----------------16-----|
A|14--14-----------------|
E|-----------------------|


************************************

| /   slide up
| \   slide down
| h   hammer-on
| p   pull-off
| ~   vibrato
| +   harmonic
| x   Mute note
| b   Bend
| pb  Pre-bend
| br  Bend release
| pbr Pre-bend release
| brb Bend release bend

************************************
Tap to rate this tab
 
# A B C D E F G H I J K L M N O P Q R S T U V W X Y Z