Song name
# A B C D E F G H I J K L M N O P Q R S T U V W X Y Z

Strokes - Machu Picchu tab

Intro

PALM MUTED

E ---------------------|
B ----------11-11------|
G -----11-11-----11-11-|  X2
D 13-13----------------|
A ---------------------|
E ---------------------|

E ---------------------|
B ----------14-14------|
G -----13-13-----13-13-|  X2
D 15-15----------------|
A ---------------------|
E ---------------------|

E ----------11-11------|
B -----11-11-----11-11-|
G 11-11----------------| X2
D ---------------------|
A ---------------------|
E ---------------------|

E ---------------------|
B ----------14-14------|
G -----13-13-----13-13-|
D 15-15----------------|
A ---------------------|
E ---------------------|

E ----------------------|
B -----------13-13------|
G ------13-13-----13-13-|
D 13-13-----------------|
A ----------------------|
E ----------------------|

Verse

SECTION A (SAME AS INTRO)

SECTION B

E ---------------------|
B ----------11-11------|
G -----11-11-----11-11-|  X2
D 13-13----------------|
A ---------------------|
E ---------------------|

E ---------------------|
B ----------14-14------|
G -----13-13-----13-13-|  X2
D 15-15----------------|
A ---------------------|
E ---------------------|

E ----------11-11------|
B -----11-11-----11-11-|
G 11-11----------------| X2
D ---------------------|
A ---------------------|
E ---------------------|

E ---------------------|
B ----------14-14------|
G -----13-13-----13-13-|
D 15-15----------------|
A ---------------------|
E ---------------------|

E ---------------------|
B -----------4-6-4-6-7-|
G 13~------------------|
D 13~------------------|
A 11~------------------|
E ---------------------|


SECTION C (CHORDS AT THE END OF THE BARS ARE STABBY CHORDS)

E ----------------------11--|
B ----------11-11-------11--|
G -----11-11-----11-----11--|
D 13-13-------------13------|
A --------------------------|
E --------------------------|

E --------------------------|
B ----------14-14-------14--|
G -----13-13-----13-----13--|
D 15-15-------------15--15--|
A --------------------------|
E --------------------------|

E ----------11-11-------11--|
B -----11-11-----11-----11--|
G 11-11-------------11--11--|
D --------------------------|
A --------------------------|
E --------------------------|

E ---------------------|
B ----------14-14------|
G -----13-13-----13-13-|
D 15-15----------------|
A ---------------------|
E ---------------------|

E ----------------------|
B -----------13-13------|
G ------13-13-----13-13-|
D 13-13-----------------|
A ----------------------|
E ----------------------|

SECTION D (STABBY CHORDS)

E 11---------------11-----------------------------|
B 11-------14------11------14-14-13~----4-6-4-6-7-|
G 11--(X4)-13-(X4)-11-(X4)-13 13 13~--------------|
D 11-------15--------------13 13 13~--------------|
A ------------------------------------------------|
E ------------------------------------------------|


Chorus

E --------------------------------|
B --------------------------------|
G 8--8-8--/13--13-13-13-13--------| (X8)
D 8--8-8--/13--13-13-13-13--------|
A 6--6-6--/11--11-11-11-11--------|
E --------------------------------|


THEN...

E -------------------------|
B 11---------------11------|
G --11-----11-11-13--13-11-|
D -------------------------|
A -------------------------|
E -------------------------|
                                (X2)
E -------------------------|
B 13---------------13------|
G --13-----13-13-15--15-13-|
D -------------------------|
A -------------------------|
E -------------------------|

E 11---------------11-------------------------|
B 11-------14------11------14-14-13-13--------|
G 11--(X3)-13-(X3)-11-(X3)-13 13 13-13--------|
D 11-------15--------------13 13 13-13--------|
A --------------------------------------------|
E --------------------------------------------|

Verse
SECTION A AND B

Chorus

Bridge

E -------------------------|
B 13---------------13------|
G --13-----13-13-15--15-13-|
D -------------------------|
A -------------------------|
E -------------------------|
                                (X7)
E -------------------------|
B 11---------------11------|
G --11-----11-11-13--13-11-|
D -------------------------|
A -------------------------|
E -------------------------|

STRUMMING...

E 14---------|
B 14---(X16)-|
G 14---------|
D -----------|
A -----------|
E -----------|

E 11---------------11-----------------------------|
B 11-------14------11------14-14-13~----4-6-4-6-7-|
G 11--(X3)-13-(X3)-11-(X3)-13 13 13~--------------|
D 11-------15--------------13 13 13~--------------|
A ------------------------------------------------|
E ------------------------------------------------|

Chorus x2

Outro

E -------------------------|
B 13---------------13------|
G --13-----13-13-15--15-13-|
D -------------------------|
A -------------------------|
E -------------------------|
                                (X2)
E -------------------------|
B 11---------------11------|
G --11-----11-11-13--13-11-|
D -------------------------|
A -------------------------|
E -------------------------|
Tap to rate this tab
 
# A B C D E F G H I J K L M N O P Q R S T U V W X Y Z