Song name
# A B C D E F G H I J K L M N O P Q R S T U V W X Y Z

Strokes - Razor Blade tab

----------------------------------------------------------------------------
                       Razorblade - The Strokes
----------------------------------------------------------------------------

Tabbed by: Jorge Orellana
E-mail: jorgeorellana.e@hotmail.com
Tuning: Standard E 
Nick Valensi part (lead guitar)


Intro/First riff:

e|----------------------------------7-5---5-7-------------------------------|
B|-2-3-2-3-3/5-3-2-3----------------7-5-7-5-7--7-5-3-5-7--3/5-3-3/5-3-3/5-3-|
G|-2-4-2-4-4/6-4-2-4-2-4-2-4-6-4-2------7------7-6-4-6-7--4/6-4-4/6-4-4/6-4-|
D|-------------------4-6-4-6-7-6-4------------------------------------------|
A|--------------------------------------------------------------------------|
E|--------------------------------------------------------------------------|

e|-----------------------------------------7-5---5-7------------------------|
B|-3/5-3--2-3-2-3-3/5-3-2-3----------------7-5-7-5-7--7-5-3-5-7--3/5-3-3/5-3|
G|-4/6-4--2-4-2-4-4/6-4-2-4-2-4-2-4-6-4-2------7------7-6-4-6-7--4/6-4-4/6-4|
D|--------------------------4-6-4-6-7-6-4-----------------------------------|
A|--------------------------------------------------------------------------|
E|--------------------------------------------------------------------------|
                                         Add this part in the second riff: 
e|----------------------------------------|   e|------/9--|
B|-3/5-3-3/5-3--3/7---7---7\3---3---3---3/|   B|---3/-----|
G|-4/6-4-4/6-4--4/7---7---7\4---4---4---4/|   G|---4/-----|
D|----------------------------------------|   D|----------|
A|----------------------------------------|   A|----------|
E|----------------------------------------|   E|----------|

Verse:

e|--------------------------------------------------------------------------|
B|-14p10--10-14/17-15-------15p12--12-15/19-17--17--14p10--10-14/17-15------|
G|------14------------18-14-------------------19---------14-----------18-14-|
D|-------------------------------16-----------------------------------------|
A|--------------------------------------------------------------------------|
E|--------------------------------------------------------------------------|

e|-----------------------------------------------x---x---x-x---x---x-x--x-x-|
B|-15p12--12-15/19-17--17-19p17--17-16/19-17-----9---9---9-9---9---9-9--9-9-|
G|-------------------19--------18-----------18\--9---9---9-9---9---9-9--9-9-|
D|------16---------------------------------------9---9---9-9---9---9-9--9-9-|
A|-----------------------------------------------7---7---7-7---7---7-7--7-7-|
E|-----------------------------------------------x---x---x-x---x---x-x--x-x-|

e|---x---x---x-x---x---x-x--x-x--------------------------------------------|
B|---9---9---9-9---9---9-9--9-9--14p10--10-14/17-15-------15p12--12-15/19--|
G|---9---9---9-9---9---9-9--9-9-------14------------18-14------------------|
D|---9---9---9-9---9---9-9--9-9--------------------------------16----------|
A|---7---7---7-7---7---7-7--7-7--------------------------------------------|
E|---x---x---x-x---x---x-x--x-x--------------------------------------------|

e|-----------------------------------------------------------------|
B|17--17--14p10--10-14/17-15------15p12--12-15/19-17--17~19p17--17-|
G|--19---------14-----------18-14~------------------19--------18---|
D|-------------------------------------16--------------------------|
A|-----------------------------------------------------------------|
E|-----------------------------------------------------------------|

e|-------------x---x---x-x---x---x-x--x-x---x---x---x-x---x---x-x--x-x---|
B|16/19-17-----9---9---9-9---9---9-9--9-9---9---9---9-9---9---9-9--9-9---|
G|--------18\--9---9---9-9---9---9-9--9-9---9---9---9-9---9---9-9--9-9---|
D|-------------9---9---9-9---9---9-9--9-9---9---9---9-9---9---9-9--9-9---|
A|-------------7---7---7-7---7---7-7--7-7---7---7---7-7---7---7-7--7-7---|
E|-------------x---x---x-x---x---x-x--x-x---x---x---x-x---x---x-x--x-x---|

Chorus [chords A - F#m - Bm] x2

e|--x---x-x--x-x--x-x--x-x---x-x---2---2-2--2-2--2-2--2-2---2-2---|
B|--2---2-2--2-2--2-2--2-2---2-2---2---2-2--2-2--2-2--2-2---2-2---|
G|--2---2-2--2-2--2-2--2-2---2-2---2---2-2--2-2--2-2--2-2---2-2---|
D|--2---2-2--2-2--2-2--2-2---2-2---4---4-4--4-4--4-4--4-4---4-4---|
A|--0---0-0--0-0--0-0--0-0---0-0---4---4-4--4-4--4-4--4-4---4-4---|
E|--x---x-x--x-x--x-x--x-x---x-x---x---x-x--x-x--x-x--x-x---x-x---|

e|--2---2-2--2-2--2-2--2-2---2-2---2---2-2--2-2--2-2--2-2---2-2---|
B|--3---3-3--3-3--3-3--3-3---3-3---3---3-3--3-3--3-3--3-3---3-3---|
G|--4---4-4--4-4--4-4--4-4---4-4---4---4-4--4-4--4-4--4-4---4-4---|
D|--4---4-4--4-4--4-4--4-4---4-4---4---4-4--4-4--4-4--4-4---4-4---|
A|--x---x-x--x-x--x-x--x-x---x-x---x---x-x--x-x--x-x--x-x---x-x---|
E|--x---x-x--x-x--x-x--x-x---x-x---x---x-x--x-x--x-x--x-x---x-x---|

Solo/outro:

e|--7p5-9p5-7p5-9p5-7p5-5--------------------------------------12p10---|
B|-----5---5---5---5---5--12p10--14p10--12p10--14p10--12p10--10-----10-|
G|-----------------------------11-----11-----11-----11-----11----------|
D|---------------------------------------------------------------------|
A|---------------------------------------------------------------------|
E|---------------------------------------------------------------------|

e|-14p10--12p10--14p10--12p10---x-12\10-10-12-12\10-10--12-12\-------------|
B|------10-----10-----10-----10-x-14\12-12-14-14\12-12--14-14\---7b9--pbr9-|
G|-------------------------------------------------------------------------|
D|-------------------------------------------------------------------------|
A|-------------------------------------------------------------------------|
E|-------------------------------------------------------------------------|

e|-----------------------5--(5)--(5)--x-12\10-10-12-12\10-10--12\9---9/12--|
B|---pbr9--pbr9--br7--7~--------------x-14\12-12-14-14\12-12--14\10--10/14-|
G|-------------------------------------------------------------------------|
D|-------------------------------------------------------------------------|
A|-------------------------------------------------------------------------|
E|-------------------------------------------------------------------------|

e|--10--9---9/12---10---9---9/12---10---9---9/12---10--10-------10\--------|
B|--12--10--10/14--12---10--10/14--12---10--10/14--12--10-------10\--------|
G|-------------------------------------------------------------------------|
D|-------------------------------------------------------------------------|
A|-------------------------------------------------------------------------|
E|-------------------------------------------------------------------------|

e|----------------------------------7-5---5-7-------------------------------|
B|-2-3-2-3-3/5-3-2-3----------------7-5-7-5-7--7-5-3-5-7--3/5-3-3/5-3-3/5-3-|
G|-2-4-2-4-4/6-4-2-4-2-4-2-4-6-4-2------7------7-6-4-6-7--4/6-4-4/6-4-4/6-4-|
D|-------------------4-6-4-6-7-6-4------------------------------------------|
A|--------------------------------------------------------------------------|
E|--------------------------------------------------------------------------|

e|----------------------------/9---||
B|-3/5-3--3/7------3-------3/------||
G|-4/6-4--4/7------4-------4/------||
D|---------------------------------||
A|---------------------------------||
E|---------------------------------||



************************************
| ()  Opcional note
| /   slide up
| \   slide down
| h   hammer-on
| p   pull-off
| ~   vibrato
| +   harmonic
| x   Mute note
| b   Bend
| pb  Pre-bend
| br  Bend release
| pbr Pre-bend release
| brb Bend release bend

************************************
Tap to rate this tab
 
# A B C D E F G H I J K L M N O P Q R S T U V W X Y Z