Song name
# A B C D E F G H I J K L M N O P Q R S T U V W X Y Z

Strokes - You Only Live Once tab

This is my first tab.  I just use the other tabs
to play the rest of the song, but I kept feeling
like the solo was a bit off.  Let me know what
you think!

First solo:

------------------------------------11-11-9-------------------------------|
12(b)14-11-9--------------------------------11(b)-9-----------------------|
-------------11(b)-11-9-8-9-8-----------------------11(b)-11-9-8-9-8-8----|
------------------------------11-9-------------------------------------11-|
--------------------------------------------------------------------------|
--------------------------------------------------------------------------|


12-11---------------12---------------------11-9-------------(9)-----------|
------14-12-11-11-14--14-12-14-12-11-12-11------11(b)-9-----(9)-----------|
------------------------------------------------------------(9)-----------|
--------------------------------------------------------------------------|
--------------------------------------------------------------------------|
--------------------------------------------------------------------------|

Second solo (exactly the same except a few extra notes at the end)

------------------------------------11-11-9-------------------------------|
12(b)14-11-9--------------------------------11(b)-9-----------------------|
-------------11(b)-11-9-8-9-8-----------------------11(b)-11-9-8-9-8-8----|
------------------------------11-9-------------------------------------11-|
--------------------------------------------------------------------------|
--------------------------------------------------------------------------|


12-11---------------12---------------------11-9---------------------------|
------14-12-11-11-14--14-12-14-12-11-12-11------11(b)-9-------------------|
--------------------------------------------------------11(b)-11-9-8-9-8--|
--------------------------------------------------------------------------|
--------------------------------------------------------------------------|
--------------------------------------------------------------------------|

---------11--11--11--11--11--11--11--11-11--------------------------------|
-------12--12--12--12--12--12--12--12---12--------------------------------|
--------------------------------------------------------------------------|
11-9----------------------------------------------------------------------|
--------------------------------------------------------------------------|
--------------------------------------------------------------------------|
Tap to rate this tab
# A B C D E F G H I J K L M N O P Q R S T U V W X Y Z