Song name
# A B C D E F G H I J K L M N O P Q R S T U V W X Y Z

Strokes - The Rhythm Song tab

the tuning its the basic in E
I always wanted the tab, and nobody post it, so here it is for everyone who has ever 
wanted, kisses for everyone, im not gay

----------------------------------------------------------------------------|
---------------------14-12--14-12--14-12--14-12---14-12------------------12-|
--14b (x a lot)------14-12--14-12--14-12--14-12---14-12--12b-------------12-|
--------------------------14-----14-----14------14-----14----14p12--12-14---|
------------------------------------------------------------------15--------|
----------------------------------------------------------------------------|


                                         -AT THIS PART, ARENT THE NUMBER OF              
NOTES YOU PICK, THEY ARE MORE,LISTEN TO THE SONG, BUT IT IS WHERE YOU HAVE TO PUT YOUR 
FINGERS                FROM HERE-->                        <-TO HERE

-------------------------------------------------------------------15--------|
-12---12-14-12---12--------12--12--12--------15---14-12-14-12------16--------|
-12---12-14-12---12--------12--12--12-14s16--16---14-12-14-12 14s16----------| (READ UP)
----14---------14--14-12-14--14--14------------------------------------------|
-----------------------------------------------------------------------------|
-----------------------------------------------------------------------------|


-10 12b-10-12b-10-12b-10-12b-10-12b-10---------------------10---------------|
--------------------------------------12-10--------12--10b-(dont stop bend)-|
--------------------------------------------12-9---12-----------------------|
----------------------------------------------------------------------------|
----------------------------------------------------------------------------|
----------------------------------------------------------------------------|
Tap to rate this tab
# A B C D E F G H I J K L M N O P Q R S T U V W X Y Z