Song name
# A B C D E F G H I J K L M N O P Q R S T U V W X Y Z

Strokes - Trying Your Luck tab

TRYING YOUR LUCK - The Strokes

Tuning: eBGDAE (standard tuning)

I did this tab using two tabs i found on www.ultimate-guitar.com and adding parts. 
to alucard_ps2 and Adrian Gunstone for the other tabs. btw this is my first tab (every tab i 
says that)
Hope u like it, please rate !


Verses:
***********************************************************************
Guitar 1
E||-----------------------------------------------------------------||
B||-----------------------------------------------------------------||
G||--555555555555555555555554444444444444445555555555555555555------||
D||-----------------------------------------------------------------||
A||-----------------------------------------------------------------||
E||-----------------------------------------------------------------||
Guitar2

       Am          F         Dm         G          Em
E||-------------1-1---1----1-1---1----3-3---3-----------------------||
B||--1-1---1----1-1---1----3-3---3----3-3---3----0-0---0------------||
G||--2-2---2----2-2---2----2-2---2----0-0---0----0-0---0------------||
D||--2-2---2----3-3---3--------------------------2-2---2------------||
A||----------------------------------------------2-2---2------------||
E||-----------------------------------------------------------------||


**********************************************************************
Guitar2
       Am          E         F           Dm         Am
E||------------------------1-1---1-----1-1---1----------------------||
B||--1-1---1---------------1-1---1-----3-3---3-----1-1---1----------||
G||--2-2---2----1-1---1----2-2---2-----2-2---2-----2-2---2----------||
D||--2-2---2----2-2---2----3-3---3-----------------2-2---2----------||
A||-------------2-2---2---------------------------------------------||
E||-----------------------------------------------------------------||

****************************************************************************

Chorus:
Guitar1
E||--------------------------------------------------------------------||
B||--------------------------------------------------------------------||
G||--------------------------------------------------------------------||
D||--------------------------------------------------------------------||
A||------------7-8-8-7-8---3-5-5-3-5---5-3-0-----5-7-7-5-7-------------||
E||--3-5-5-3-5-------------------------------3-------------------------||

Pre-Chorus:
Guitar2
       F       Dm       C       E       F      Dm      C       B
E||--1-1--1--1-1--1------------------1-1--1--1-1--1----------------------||
B||--1-1--1--3-3--3--1-1--1----------1-1--1--3-3--3--1-1--1--------------||
G||--2-2--2--2-2--2--0-0--0--1-1--1--2-2--2--2-2--2--0-0--0--4-4--4------||
D||--3-3--3----------2-2--2--2-2--2--3-3--3----------2-2--2--4-4--4------||
A||------------------3-3--3--2-2--2------------------3-3--3--2-2--2------||
E||----------------------------------------------------------------------||


************************************************************************
Guitar1
Solo:

E||--8-7-5--8-7-5-------8-10-10b-8----------8-10-10b-8-----------------||
B||----------------10---------------10---10-------------12-------------||
G||--------------------------------------------------------------------||
D||--------------------------------------------------------------------||
A||--------------------------------------------------------------------||
E||--------------------------------------------------------------------||


E||--15b-13-12-12-10---------------------------------------------------||
B||-------------------15-13---10h12-12-12-10h12-12-12/15-15-15----17b--||
G||--------------------------------------------------------------------||
D||--------------------------------------------------------------------||
A||--------------------------------------------------------------------||
E||--------------------------------------------------------------------||

E||--12/15-15-15-17b--/12----------------------------------------------||
B||--------------------------------------------------------------------||
G||--------------------------------------------------------------------||
D||--------------------------------------------------------------------||
A||--------------------------------------------------------------------||
E||--------------------------------------------------------------------||
Tap to rate this tab
 
# A B C D E F G H I J K L M N O P Q R S T U V W X Y Z