Song name
# A B C D E F G H I J K L M N O P Q R S T U V W X Y Z

Strokes - Trying Your Luck tab

------------------------------------------------------------------------------
Trying Your Luck - The Strokes
-----------------------------------------------------------------------------
Tabbed by: Goin Into Space
E-mail:

Tuning: Standard

e|--------------------------------------------------------------------------|
B|-13-12----13-12--------------13--15-15b17-13------------13-15-15b17 13-12-|
G|-------14-------14-----12/14-----------------14-----14--------------------|
D|--------------------------------------------------------------------------|
A|--------------------------------------------------------------------------|
E|--------------------------------------------------------------------------|

e|--15b17b15-15p13-12~------------------------------------------------------|
B|----------------------15-13-----10/12~-12~-12~-10/12~-12~-12/15-----------|
G|----------------------------14--------------------------------------------|
D|--------------------------------------------------------------------------|
A|--------------------------------------------------------------------------|
E|--------------------------------------------------------------------------|

e|-12---1212--12---1212--12---12---15---1515--15---1515--15---15------------|
B|-15b17------15b17------15b17-----18b20------18b20------18b20--------------|
G|--------------------------------------------------------------------------|
D|--------------------------------------------------------------------------|
A|--------------------------------------------------------------------------|
E|--------------------------------------------------------------------------|

e|-17--17--17--17--17-------------------------------------------------------|
B|-20b-20b-20b-20b-20b-20---------------------------------------------------|
G|--------------------------------------------------------------------------|
D|--------------------------------------------------------------------------|
A|--------------------------------------------------------------------------|
E|--------------------------------------------------------------------------|

************************************

| /   slide up
| \   slide down
| h   hammer-on
| p   pull-off
| ~   vibrato
| +   harmonic
| x   Mute note
| b   Bend
| pb  Pre-bend
| br  Bend release
| pbr Pre-bend release
| brb Bend release bend

************************************
Tap to rate this tab
# A B C D E F G H I J K L M N O P Q R S T U V W X Y Z