Song name
# A B C D E F G H I J K L M N O P Q R S T U V W X Y Z

Strokes - Reptillia tab

All of this is accurate when I play it back with the music. I am sorry about the 
pre-chorus and chorus with the 10, 12, 14 but when it is the same number next to eachother do 
not slide. I hope you enjoy I am a huge Strokes fan and my email is wittmannjack@gmail.com. ENJOY!

Intro:
Guitar 1: Lead (Albert Hammond Jr.)
e---------------------------------------------------------------------------|
b---------------------------------------------------------------------------|
g-77-7----77-7--------------------------------------------------------------|
d-xx-x97--xx-x97------------------------------------------------------------|
a-xx-xxx--xx-xxx--11/11-11/14/17--11/11-11/14/17----------------------------|
e-77-777--77-777--0--0--0--0--0---0--0--0--0--0-----------------------------|

Guitar 2: Rythm (Nick Valensi)
e---------------------------------------------------------------------------|
b---------------------------------------------------------------------------|
g-----------------999999999999999-------------------------------------------|
d-999999999999999-999999999999999-------------------------------------------|
a-999999999999999-777777777777777-------------------------------------------|
e-777777777777777-----------------------------------------------------------|

Verse:
Guitar 1: Lead (Albert Hammond Jr.)
e---------------------------------------------------------------------------|
b---------------------------------------------------------------------------|
g---------------------------------------------------------------------------|
d-12/12-12------12/12-12------------------12------------12------------------|
a---------14/12---------14/12--11/11-11/14---11/11-11/14--------------------|

When the rthym guitar comes in it changes to:
e---------------------------------------------------------------------------|
b---------------------------------------------------------------------------|
g-77-7----77-7--------------------------------------------------------------|
d-xx-x97--xx-x97------------------------------------------------------------|
a-xx-xxx--xx-xxx--11/11-11/14/17--11/11-11/14/17----------------------------|
e-77-777--77-777--0--0--0--0--0---0--0--0--0--0-----------------------------|

When the rythm comes in (Nick Valensi) it is:
e---------------------------------------------------------------------------|
b---------------------------------------------------------------------------|
g-----------------999999999999999-------------------------------------------|
d-999999999999999-999999999999999-------------------------------------------|
a-999999999999999-777777777777777-------------------------------------------|
e-777777777777777-----------------------------------------------------------|

Pre-Chorus: Guitar 2 (Nick Valensi)
e---------------------------------------------------------------------------|
b-15/15-15/10-10-10/12-12--12/14-14-14/12-12-12/14-14-14/10-10-10/15-15-----|
g-x--x--x--x--x--x--x--x---x--x--x--x--x--x--x--x--x--x--x--x--x--x--x------|
d-x--x--x--x--x--x--x--x---x--x--x--x--x--x--x--x--x--x--x--x--x--x--x------|
a-14/14-14/9--9--9-10--10--10/12-12-12/10-10-10/12-12-12-9--9--9--14-14-----|
e---------------------------------------------------------------------------|

Chorus: Guitar 2 (Nick Valensi)
e---------------------------------------------------------------------------|
b-15/15-15/10-10-10/12-12--12/14-14-14/12-12-12/14-14-14/10-10-10/15-15-----|
g-x--x--x--x--x--x--x--x---x--x--x--x--x--x--x--x--x--x--x--x--x--x--x------|
d-x--x--x--x--x--x--x--x---x--x--x--x--x--x--x--x--x--x--x--x--x--x--x------|
a-14/14-14/9--9--9-10--10--10/12-12-12/10-10-10/12-12-12-9--9--9--14-14-----|
e---------------------------------------------------------------------------|

Guitar 1 (Albert Hammond Jr.)
e-7----10-9----9-7-7-10-9--12-9--7-7-10-9--12-9-9---9-10-7-9----------------|
b--7-10----7-10---8------10-------8------10------7-8------7-----------------|
g---------------------------------------------------------------------------|
d---------------------------------------------------------------------------|
a---------------------------------------------------------------------------|
e---------------------------------------------------------------------------|

Solo:
Guitar 1 (Albert Hammond Jr.)
e-7777777777777777----------------------------------------------------------|
b-7777777777777777-9999999999999999-----------------------------------------|
g-7777777777777777-9999999999999999-----------------------------------------|
d-9999999999999999-9999999999999999-----------------------------------------|
a-9999999999999999-7777777777777777-----------------------------------------|
e-7777777777777777----------------------------------------------------------|

Guitar 2 (Nick Valensi)
e----------------------------------------------------------7----------------|
b-9-7-7-------------7-9-7-7---------------(Repeat 2x)-10b---10p9------------|
g----9-9-7-9-7-6-7-6-----9-9-7-9-7-6-7-6------------------------11p9-11-7---|
d---------------------------------------9-----------------------------------|
a---------------------------------------------------------------------------|
e---------------------------------------------------------------------------|

e-10b--9----------------12b--10p9-----------12b--10p9------------------------|
b--------10p9---------------------12p10-12-----------12--9-7-7-------------7-|
g-------------11p9-11-7-------------------13----------------7-9-7-9-7-6-7-6--|
d----------------------------------------------------------------------------|
a----------------------------------------------------------------------------|
e----------------------------------------------------------------------------|

e---------------------------------------------------------------------------|
b-9-7-7---------------------------------------------------------------------|
g----9-9-7-hold note--------------------------------------------------------|
d---------------------------------------------------------------------------|
a---------------------------------------------------------------------------|
e---------------------------------------------------------------------------|

Guitar 2 (Nick Valensi) for the verse is changed a little but it wiil be (This is only 
for after the solo is finished):
e---------------------------------------------------------------------------|
b---------------------------------------------------------------------------|
g--------------------9---9---9--9-------------------------------------------|
d---9---9---9---9----9---9---9--9-------------------------------------------|
a---9---9---9---9--77777777777777-------------------------------------------|
e-7777777777777777----------------------------------------------------------|
Tap to rate this tab
 
# A B C D E F G H I J K L M N O P Q R S T U V W X Y Z