Song name
# A B C D E F G H I J K L M N O P Q R S T U V W X Y Z

Strokes - Taken For A Fool tab

Solo tabbed by Brendan Johnson

Artist: The Strokes
Song: Taken For a Fool
Album: Angles


(1:20)
E----|----------------------------|-----|-----------------------|
B----|-------11-10----10----------|-----|-----------------------|
G----|-------------12----10-12-12-|-12--|--------10-12----------|
D--12|-10-12----------------------|-----|--10-12-------12-12-10-|
A----|----------------------------|-----|-----------------------|
E----|----------------------------|-----|-----------------------|

E----|----------------------------|-------------------------------------|
B----|-------11-10----10----------|-------------------------------------|
G--10|----10-------12----10-12-12-|-----------------------------6-7-8-9-|
D----|-12-------------------------|--------------------7-8-9-10---------|
A----|----------------------------|-----------7-8-9-10------------------|
E----|----------------------------|-8-9-10-11---------------------------|
Tap to rate this tab
# A B C D E F G H I J K L M N O P Q R S T U V W X Y Z