Song name
# A B C D E F G H I J K L M N O P Q R S T U V W X Y Z

Strokes - One Way Trigger tab

First Part 
idk the times but it's easy to get it

|---------5----------3-------|
|----8----5---7------3-------|
|----9----6---7-6----4-------|
|----9----7---7-7----5-------|
|----7----7---5-5----5-------|
|----------------------------|


Solo

|----------------------9-9--|
|--7-8-7-8-7--7-8-7-8--8-8--|
|---------------------------|
|---------------------------|
|---------------------------|
|---------------------------|

|-----------------------5-5-|
|--7-8-7-10-7-7-8-7-8-7-7-7-|
|---------------------------|
|---------------------------|
|---------------------------|
|---------------------------|

|----------------------3-3--|
|--5-7-5-7-5--5-7-5-7--5-5--|
|---------------------------|
|---------------------------|
|---------------------------|
|---------------------------|

|---------------------------|
|-3-5-3-5-3---5--7--8-------|
|-------------7b-9b-10b-----|
|---------------------------|
|---------------------------|
|---------------------------|

|-9-10-9-10-9--9-10-9-10-9-9-9--|
|-------------------------------|
|-------------------------------|
|-------------------------------|
|-------------------------------|
|-------------------------------|

|-10-12-10-12-10--10-12-10-12-10-10-10-|
|--------------------------------------|
|--------------------------------------|
|--------------------------------------|
|--------------------------------------|
|--------------------------------------|

|-12-14-12-14-12--12-14-12-14-12-12-12---|
|----------------------------------------|
|----------------------------------------|
|----------------------------------------|
|----------------------------------------|
|----------------------------------------|

|-14-15-14-15-14--12--14--15--------------|
|-----------------15b-17b-18b-------------|
|-----------------------------------------|
|-----------------------------------------|
|-----------------------------------------|
|-----------------------------------------|

When the solo ends play again the first 

Tap to rate this tab
 
# A B C D E F G H I J K L M N O P Q R S T U V W X Y Z