Song name
# A B C D E F G H I J K L M N O P Q R S T U V W X Y Z

Strokes - All The Time tab

First tab so be nice!

Had many requests following my cover on YouTube

Check it out! I think the tab is more accurate than i play it...

http://www.youtube.com/watch?v=bAghE0vL6kY

Key:

/ (slide)

h (hammer on)

p (pull off)

e|--------------------------------------------------|
B|----9--10--12/14--12--15--14--15--12h14p12--10--9-|
G|11------------------------------------------------|
D|--------------------------------------------------|
A|--------------------------------------------------|
E|--------------------------------------------------|

e|--------------------------------------------------|
B|--5--7/10/12--10--13--12--13--10h12p10--9h10p9----|
G|7-----------------------------------------------10|
D|--------------------------------------------------|
A|--------------------------------------------------|
E|--------------------------------------------------|


e|---------------------------------------------------|
B|--9---10---12-------15----14----12----10----15---14|
G|---------------------------------------------------|
D|6---7----9----11--12----11----9-----7----12---11---|
A|---------------------------------------------------|
E|---------------------------------------------------|

e|---------------------------------------------------|
B|---12---13----13---12----10----6-------------------|
G|---------------------------------------------------|
D|9----7-----10----9----7-----3----------------------|
A|---------------------------------------------------|
E|---------------------------------------------------|

e|----7--9--10/12-9--12/14--12-----------------------|
B|10----------------------------15--14--12-----------|
G|-----------------------------------------14--0--12-|
D|---------------------------------------------------|
A|---------------------------------------------------|
E|---------------------------------------------------|

e|--------9--12--9--12--9/10--12h14p12p10h12p10------|
B|10--12-----------------------------------------14--|
G|---------------------------------------------------|
D|---------------------------------------------------|
A|---------------------------------------------------|
E|---------------------------------------------------|

e|---------------------------------------------------|
B|14--14--12--14--9-10-12--12--12--10----------------|
G|14--14--12--14--9-9--9---12--12--11----------------|
D|---------------------------------------------------|
A|---------------------------------------------------|
E|---------------------------------------------------|
Tap to rate this tab
# A B C D E F G H I J K L M N O P Q R S T U V W X Y Z