Song name
# A B C D E F G H I J K L M N O P Q R S T U V W X Y Z

Strokes - All The Time tab

My first tab ever.

I don't know if it's 100% accurate but it sounds good while playing. The timing in the 
pre-chorus and the solo is off, although it's easy to get if you listen to the song 
closely for a few times.

Please rate and comment!


Intro:


Guitar 2:

|-----------------------------------------------------------------|
|-----------------------------------------------------------------|
|-9-9-9-9-9-9-9-9-4-4-4-4-4-4-4-4-7-7-7-7-7-7-7-7-1010101010101010|
|-9-9-9-9-9-9-9-9-7-7-7-7-7-7-7-7-7-7-7-7-7-7-7-7-1010101010101010|
|-7-7-7-7-7-7-7-7-5-5-5-5-5-5-5-5-5-5-5-5-5-5-5-5-8-8-8-8-8-8-8-8-|
|-----------------------------------------------------------------|

|-----------------------------------------------------------------|
|-----------------------------------------------------------------|
|-9-9-9-9-9-9-9-9-4-4-4-4-4-4-4-4-7-7-7-7-7-7-7-7-10-10-10--101010|
|-9-9-9-9-9-9-9-9-7-7-7-7-7-7-7-7-7-7-7-7-7-7-7-7-10-10-10--101010|
|-7-7-7-7-7-7-7-7-5-5-5-5-5-5-5-5-5-5-5-5-5-5-5-5-8--8--8---8-8-8-|
|-----------------------------------------------------------------|


Verse:


Guitar 1:

|-7~~~~~~~~~~~~~~~~~~~~~~~~~~~~~~~~-5~~~~~~~~~~~~~~~-8~~~~~~~~~~~~~~~|
|-9~~~~~~~~~~~~~~~~~~~~~~~~~~~~~~~~-7~~~~~~~~~~~~~~~-10~~~~~~~~~~~~~~|
|-9~~~~~~~~~~~~~~~~~~~~~~~~~~~~~~~~-7~~~~~~~~~~~~~~~-10~~~~~~~~~~~~~~|
|-9~~~~~~~~~~~~~~~~~~~~~~~~~~~~~~~~-7~~~~~~~~~~~~~~~-10~~~~~~~~~~~~~~| X2
|-7~~~~~~~~~~~~~~~~~~~~~~~~~~~~~~~~-5~~~~~~~~~~~~~~~-8~~~~~~~~~~~~~~~|
|--------------------------------------------------------------------|

Guitar 2:

|-----------------------------------------------------------------|
|-----------------------------------------------------------------|
|-9-9-9-9-9-9-9-9-4-4-4-4-4-4-4-4-7-7-7-7-7-7-7-7-1010101010101010|
|-9-9-9-9-9-9-9-9-7-7-7-7-7-7-7-7-7-7-7-7-7-7-7-7-1010101010101010| X2
|-7-7-7-7-7-7-7-7-5-5-5-5-5-5-5-5-5-5-5-5-5-5-5-5-8-8-8-8-8-8-8-8-|
|-----------------------------------------------------------------|


Pre-chorus:


Guitar 1:

|------------------------------------------------|
|-10----------9-------9---8---------7------------|
|-----9-----9----9------9----7----7----7-----7-7-|
|--------11---------11----------9---------7------| X2
|------------------------------------------------|
|------------------------------------------------|

Guitar 2:

|-----------------------------------------------------------------|
|-----------------------------------------------------------------|
|-----------------------------------------------------------------|
|-7-7-7-7-7-7-7-7-6-6-6-6-6-6-6-6-5-5-5-5-5-5-5-5-4-4-4-4-4-4-4-4-| X2
|-7-7-7-7-7-7-7-7-7-7-7-7-7-7-7-7-5-5-5-5-5-5-5-5-5-5-5-5-5-5-5-5-|
|-----------------------------------------------------------------|


Chorus:


Guitar 1:

|-5~~~~~~~~~~~~~~-7~~~~~~~~~~~~-|
|-7~~~~~~~~~~~~~~-9~~~~~~~~~~~~-|
|-7~~~~~~~~~~~~~~-9~~~~~~~~~~~~-|
|-7~~~~~~~~~~~~~~-9~~~~~~~~~~~~-| X2
|-5~~~~~~~~~~~~~~-7~~~~~~~~~~~~-|
|-------------------------------|
|_______X3_______|

Guitar 2:

|----------------------------------|
|----------------------------------|
|-7-7-7------------9-9-9-7---------|
|-7-7-7-7---7-7-7--9-9-9-7---7-7-7-| X2
|-5-5-5-7---7-7-7--7-7-7-7---7-7-7-|
|-------5---5-5-5--------5---5-5-5-|
|_______X3_______|


Then play verse, pre-chorus and chorus again.


Solo:


Guitar 1:

|-----------------------------------------------------------|
|--------9--10--12/14--12--15--14--15--12h14p12-------------|
|----11------------------------------------------14--13-----|
|-----------------------------------------------------------|
|-----------------------------------------------------------|
|-----------------------------------------------------------|

|-----------------------------------------------------------|
|----------------10--12--10--13--12--13--10h12p10--8h10p8---|
|---------9--11-------------------------------------------8-|
|-----12----------------------------------------------------|
|-----------------------------------------------------------|
|-10--------------------------------------------------------|

|-----------------------------------------------------------|
|----9-----10-----12------15------15-----14-----12-----10---|
|-----------------------------------------------------------|
|-6-----7------9------11------12------11------9------7------|
|-----------------------------------------------------------|
|-----------------------------------------------------------|

|-----------------------------------------------------------|
|-----15-----14----12-----13------13-----12----10-----6-----|
|-----------------------------------------------------------|
|-12-----11-----9-----7------10------9-----7------3---------|
|-----------------------------------------------------------|
|-----------------------------------------------------------|

|-----7--9--10/12--9--12/14--12--10--9----------------------|
|-10------------------------------------12--10----------10--|
|---------------------------------------------------12------|
|-----------------------------------------------------------|
|-----------------------------------------------10----------|
|-----------------------------------------------------------|

|-----9--12--9--12--9/10--12h14p1210h12p10--9---------------|
|-12--------------------------------------------------------|
|-----------------------------------------------------------|
|-----------------------------------------------------------|
|-----------------------------------------------------------|
|-----------------------------------------------------------|

|-----------------------------------------------------------|
|-14--15--14--14--14--14--14--14--14--14--14--12--12--10--10|
|-14--14--14--14--13--13--13--14--14--16--16--12--12--11--11|
|-----------------------------------------------------------|
|-----------------------------------------------------------|
|-----------------------------------------------------------|
                                             |__X4__||__X4__|

Guitar 2:

|-----------------------------------------------------------------|
|-----------------------------------------------------------------|
|-9-9-9-9-9-9-9-9-4-4-4-4-4-4-4-4-7-7-7-7-7-7-7-7-1010101010101010|
|-9-9-9-9-9-9-9-9-7-7-7-7-7-7-7-7-7-7-7-7-7-7-7-7-1010101010101010| X2
|-7-7-7-7-7-7-7-7-5-5-5-5-5-5-5-5-5-5-5-5-5-5-5-5-8-8-8-8-8-8-8-8-|
|-----------------------------------------------------------------|

|-----------------------------------------------------------------|
|-----------------------------------------------------------------|
|-----------------------------------------------------------------|
|-7-7-7-7-7-7-7-7-6-6-6-6-6-6-6-6-5-5-5-5-5-5-5-5-4-4-4-4-4-4-4-4-| X2
|-7-7-7-7-7-7-7-7-7-7-7-7-7-7-7-7-5-5-5-5-5-5-5-5-5-5-5-5-5-5-5-5-|
|-----------------------------------------------------------------|

Then play chorus twice.

End on A5

|---------|
|---------|
|---------|
|-7-------|
|-7-------|
|-5-------|


Song order:


Intro
Verse
Pre-chorus
Chorus
Verse
Pre-chorus
Chorus
Solo
Chorus X2
Tap to rate this tab
 
# A B C D E F G H I J K L M N O P Q R S T U V W X Y Z