Song name
# A B C D E F G H I J K L M N O P Q R S T U V W X Y Z

Strokes - All The Time tab

Enjoy! watch my video for more easy 
https://www.youtube.com/watch?v=GXcRdUTk0SI

(intro) 
e|--------------------------------------------------|
B|--9-------7-------10------------------------------|
G|--9-------7-------10------------------------------|
D|--9-------7-------10------------------------------|
A|--7-------5-------8-------x4----------------------|
E|--------------------------------------------------|

(All the time that I need is never quite enough...)
e|--------------------------------------------------|
B|-10-----10-9-----9--------------------------------|
G|----9--------9-----------12-----12-11-------------|
D|------11-------11----------12-9------12-9-12------|
A|-----------------------------------------------x2-|
E|--------------------------------------------------|

(You're living it up You're living it up You're living too fast...)
e|--------------------------------------------------|
B|--------------------------------------------------|
G|-77--66--77--66--11--66---------------------------|
D|-77--77--77--77--22--77-------x2------------------|
A|-55--77--55--77--22--77---------------------------|
E|-----55------55--00--55---------------------------|

(No one talks about the horror)
e|--------------------------------------------------|
B|--9-------7-------10------------------------------|
G|--9-------7-------10------------------------------|
D|--9-------7-------10------------------------------|
A|--7-------5-------8-------x2----------------------|
E|--------------------------------------------------|

(I'm all alone in a room Do you want what I want too?)
e|--------------------------------------------------|
B|-10-----10-9-----9--------------------------------|
G|----9--------9-----------12-----12-11-------------|
D|------11-------11----------12-9------12-9-12------|
A|-----------------------------------------------x2-|
E|--------------------------------------------------|

(You're living it up You're living it up You're living too fast...)
e|--------------------------------------------------|
B|--------------------------------------------------|
G|-77--66--77--66--11--66---------------------------|
D|-77--77--77--77--22--77-------x2------------------|
A|-55--77--55--77--22--77---------------------------|
E|-----55------55--00--55---------------------------|

(Solo part)
e|--------------------------------------------------|
B|--9-------7-------10------------------------------|
G|--9-------7-------10------------------------------|
D|--9-------7-------10------------------------------|
A|--7-------5-------8-------x4----------------------|
E|--------------------------------------------------|

(You never ask why You never ask why You're living it up...)
e|--------------------------------------------------|
B|--------------------------------------------------|
G|-77--66--77--66--11--66---------------------------|
D|-77--77--77--77--22--77-------x4------------------|
A|-55--77--55--77--22--77---------------------------|
E|-----55------55--00--55---------------------------|
Tap to rate this tab
# A B C D E F G H I J K L M N O P Q R S T U V W X Y Z