Song name
# A B C D E F G H I J K L M N O P Q R S T U V W X Y Z

Strokes - 50 50 tab

INTRO (x2)

E|---------------------| (X2)
B|---------------------|
G|-----6---4-6-4-------|
D|------6-6------6-4---|   
A|--4------------------|
E|---------------------|

E|---------------------| (X2)
B|---------------------|
G|-----6---4----6---4--|
D|------6-6------6-6---|   
A|--4--------4---------|
E|---------------------|

VERSE

E|------------------------------------|  
B|-------------4/2--------------------|
G|--4--1-1---4-------6---4-6-4--------|
D|--------1-----------6-6------6-4----|
A|------------------------------------|
E|------------------------------------|


CHORUS
E|----------------------------|  
B|----------------------------|
G|-------6666-6666-7777-------|
D|--6666-4444-6666-5555-------|
A|--6666------4444------------|
E|--4444----------------------|

BRIDGE

E|---------------------------|  
B|---------------------------|
G|-------------------------- |
D|--66-99-666--99------------|
A|--66-99-666--99------------|
E|--44-77-444--77------------|

INTRO (X2)
VERSE (X4)
CHORUS(X4)
BRIDGE(X2)
AGAIN
Tap to rate this tab
 
# A B C D E F G H I J K L M N O P Q R S T U V W X Y Z