Song name
# A B C D E F G H I J K L M N O P Q R S T U V W X Y Z

Strokes - 50 50 tab

-------------------------------------------------------------------------------
                              50/50 - THE STROKES
-------------------------------------------------------------------------------
Tabbed by: Kieran Marshall
E-mail: n/a

Tuning: Standard (EADGBe)


Intro (x2)

e |-------------|-------------|
B |-------------|-------------|
G |----6------4-|-6---4-------| x 2
D |-------4h6---|---------6p4-|
A |-4-----------|-------------|
E |-------------|-------------|

e |-------------|
B |-------------|
G |----6------4-| x 4
D |-------4h6---|
A |-4-----------|
E |-------------|

Verse (x 4)

e |-------------|-------------|-------------|-------------|
B |-------------|-------------|-------------|-------------|
G |----4--------|----6-8----6-|----6------4-|-6---4-------|
D |-------2h4-2-|-------------|-------4h6---|---------6p4-|
A |-2-----------|-4-----------|-4-----------|-------------|
E |-------------|-------------|-------------|-------------|

Chorus (x 4)

e |---------------|---------------|
B |---------------|---------------|
G |---------------|---------------|
D |---------------|-6-(x7)-9-(x9)-|
A |-6-(x7)-4-(x9)-|-4------7------|
E |-4------2------|---------------|

Post-Chorus (x 2)

e |-----------------|-----------------|
B |-----------------|-----------------|
G |---------4-4-4---|---------4-4-4-4-|
D |-6-6-6-6-4-4-4-6~|~~-6-6-6-4-4-4-4-|
A |-4-4-4-4-------4~|~~-4-4-4---------|
E |-----------------|-----------------|

Break

e |-------------|-------------|
B |-------------|-------------|
G |----6------4-|-6---4-------| x 2
D |-------4h6---|---------6p4-|
A |-4-----------|-------------|
E |-------------|-------------|

e |-------------|
B |-------------|
G |----6------4-| x 4
D |-------4h6---|
A |-4-----------|
E |-------------|

Verse (x 4)

e |-------------|-------------|-------------|-------------|
B |-------------|-------------|-------------|-------------|
G |----4--------|----6-8----6-|----6------4-|-6---4-------|
D |-------2h4-2-|-------------|-------4h6---|---------6p4-|
A |-2-----------|-4-----------|-4-----------|-------------|
E |-------------|-------------|-------------|-------------|

Chorus (x 4)

e |---------------|---------------|
B |---------------|---------------|
G |---------------|---------------|
D |---------------|-6-(x7)-9-(x9)-|
A |-6-(x7)-4-(x9)-|-4------7------|
E |-4------2------|---------------|

Post-Chorus (x 2)

e |-----------------|-----------------|
B |-----------------|-----------------|
G |---------4-4-4---|---------4-4-4-4-|
D |-6-6-6-6-4-4-4-6~|~~-6-6-6-4-4-4-4-|
A |-4-4-4-4-------4~|~~-4-4-4---------|
E |-----------------|-----------------|

Break

e |-------------|-------------|
B |-------------|-------------|
G |----6------4-|-6---4-------| x 2
D |-------4h6---|---------6p4-|
A |-4-----------|-------------|
E |-------------|-------------|

e |-------------|
B |-------------|
G |----6------4-| x 4
D |-------4h6---|
A |-4-----------|
E |-------------|

Chorus (x 4)

e |---------------|---------------|
B |---------------|---------------|
G |---------------|---------------|
D |---------------|-6-(x7)-9-(x9)-|
A |-6-(x7)-4-(x9)-|-4------7------|
E |-4------2------|---------------|

Post-Chorus (x 2)

e |-----------------|-----------------|
B |-----------------|-----------------|
G |---------4-4-4---|---------4-4-4-4-|
D |-6-6-6-6-4-4-4-6~|~~-6-6-6-4-4-4-4-|
A |-4-4-4-4-------4~|~~-4-4-4---------|
E |-----------------|-----------------|

Outro

e |-------------|-------------|-------------|-------------|---|
B |-------------|-------------|-------------|-------------|---|
G |-6-----------|-6-----------|-6-----6-----|-6--6--6--6--|-6-|
D |-6-----------|-6-----------|-6-----6-----|-6--6--6--6--|-6-|
A |-4-----------|-4-----------|-4-----4-----|-4--4--4--4--|-4-|
E |-------------|-------------|-------------|-------------|---|
Tap to rate this tab
 
# A B C D E F G H I J K L M N O P Q R S T U V W X Y Z