Song name
# A B C D E F G H I J K L M N O P Q R S T U V W X Y Z

Strokes - 50 50 tab

the strokes are finaly back

INTRO

guitar1

  C#
 --9----------------------------|
 --9----------------------------|
 --10---------------------------|
 --11---------------------------|
 --11---------------------------|
 --9----------------------------|

guitar2

 -------------------------------------|
 -------------------------------------|
 -------------------------------------|
 ----------11--------9-11-9-----------|(...)
 -------------9(h)11---------11(p)9---|
 -(4/9)--9--------------------------9-|


 -------------------------------------|
 -------------------------------------|
 -------------------------------------|
 ---11------9-------------------------|(...)
 ------9h11---------------------------|
 -9-----------------------------------|



 VERSE

 guitar1

 --9------4-----------------------|
 --9------4-----------------------|
 --10-----5-----10b---------------|
 --11-----6-----------------------|
 --11-----6-----------------------|
 --9------4-----------------------|

 guitar2

 --------------------------------------------------|
 --------------------------------------------------|
 -----6--4-------6-6/8-6-----6-------4-6-4---------|
 ---------6-4------------------4(h)6-------6(p)4---|
 --------------4-----------------------------------|
 --4----------------------2------------------------|

Why's she telling me the story of her life?
All the things you wanna kill will give you spite
And if you've taken all the prisoners inside
As they're doling out their wisdom in the fire

 CHORUS

 guitar1
 -------------------------|
--------------------------|
--------------------------|
--6--9--11--14------------|
--6--9--11--14------------|
--4--7--9---12------------|

 guitar2
--------------------------|
 -------------------------|
 ----6---6---9------------|
 -6--6---6---9------------|
 -6--4---4---7------------|
 -4-----------------------|
I will say!
I will say don't judge me!
I will say!
I will say don't judge me!


 guitar1
-----------------------------|
-----------------------------|
-----------------------------|
--6--9--11--14---------------|
--6--9--11--14---------------|
--4--7--9---12---------------|

guitar2
-----------------------------|
-----------------------------|
---------6---9---------------|
--6--4---6---9---------------|
--6--4---4---7---------------|
--4--2-----------------------|
I wait on a darkened highway!

git1&2

-4---7---|
-4---7---|
-5---8---|
-6---9---|
-6---9---|
-4---7---|
Tap to rate this tab
# A B C D E F G H I J K L M N O P Q R S T U V W X Y Z