Song name
# A B C D E F G H I J K L M N O P Q R S T U V W X Y Z

Strokes - Hard To Explain Acoustic tab

I saw someone play it this way and i thought it would be cool to tab it out.
This is my first tab so be nice.

Hard to Explain-The Strokes


e|----------------------------------------------------------|
B|------------------------8 x10-----------------------------|
G|-------8 x10----7 x10-------------------------------------|
D|----------------------------------------------------------|
A|----------------------------------------------------------|
E|----------------------------------------------------------|

e|----------------------------------------------------------|
B|--------------------------------------7--5----------------|
G|-------5-7-7\9------------7-5-7\9--5-- 5------------------|
D|---------------7-----5---------------------7--------------|
A|----------------------------------------------------------|
E|----------------------------------------------------------|

e|------------------------------------------------------------|
B|------------------------------------------------------------|
G|------------------------------------------------------------|
D|------------------------------------------------------------|
A|-------------------2222-------------------------------------|
E|----33333333333333-----33333333333335555--------------------|

G     Em       Am       D
Was an honest man

e|---------------------------------------------------------------------------|
B|---------------------------------------------------------------------------|
G|-----------5-7-7\9---------------------------------------------------------|
D|--------------------7----5-------------------------------------------------|
A|---------------------------------------------------------------------------|
E|---------------------------------------------------------------------------|

G                  Em
Asked me for the phone
Am               D
I tried to take control

C
Oh I don't see it that way
Am
I don't see it that way


e|------------------------------------------------------------|
B|------------------------------------------------------------|
G|------------------------------------------------------------|
D|------------------------------------------------------------|
A|-------------------2222-------------------------------------|
E|----33333333333333-----33333333333335555--------------------|


G        Em           Am       D
Oh, we shared some ideas

e|---------------------------------------------------------------------------|
B|---------------------------------------------------------------------------|
G|-----------5-7-7\9---------------------------------------------------------|
D|---------------------7----5------------------------------------------------|
A|---------------------------------------------------------------------------|
E|---------------------------------------------------------------------------|


G               Em
All obsessed with fame
Am                  D
Says we're all the same


C
Oh I don't see it that way
Am
I don't see it that way

G           Em     Bm
Raised in Carolina
             Am
"I'm not like that"
G              Em
Trying to remind her
Bm         Am
When we go Back

G
I missed the last bus, I'll take the next Train
Bm                  Am
I try but you see, its hard to Explain
G
I say the right things, but act the wrong way
Bm                 Am
I like it right here, but I cannot stay
G
I watch the TV; Forget what I'm told
Bm                    Am
Well I am too young and they are too old
G
The joke is on you this place is a zoo
Bm
"You're right is true"


e|----------------------------------------------------------|
B|------------------------8 x10-----------------------------|
G|-------8 x10----7 x10-------------------------------------|
D|----------------------------------------------------------|
A|----------------------------------------------------------|
E|----------------------------------------------------------|


e|---------------------------------------------------------------------|
B|----------------------------------------7---5----------------7-5-----|
G|-------5-7-7\9------------7--5--7\9--5---5------7-5-7\9--7-----------|
D|-----------------7---5------------------------7----------------------|
A|---------------------------------------------------------------------|
E|---------------------------------------------------------------------|


e|------------------------------------------------------------|
B|------------------------------------------------------------|
G|------------------------------------------------------------|
D|------------------------------------------------------------|
A|-------------------2222-------------------------------------|
E|----33333333333333-----33333333333335555--------------------|

G    Em        Am      D
Says she can't decide

e|---------------------------------------------------------------------------|
B|---------------------------------------------------------------------------|
G|-----------5-7-7\9---------------------------------------------------------|
D|---------------------7----5------------------------------------------------|
A|---------------------------------------------------------------------------|
E|---------------------------------------------------------------------------|


G                Em
I shake my head to say
Am              D
Everything's just great

C
Oh, I just cant remember
Am
I just can't remember

G             Em       Bm
Raised in Carolina (she says):
              Am
"I'm not like that"
G            Em
Trying to Remind her
Bm          Am
When we go Back


G
Oh I say the right things, but act the wrong way
Bm                 Am
I like it right here, but i cannot stay
G
I watch the TV; forget what I'm told
Bm                   Am
Well I am too young and they are too old
G
Oh man, can't you see, I'm living so pleased
Bm                   Am
Pretend to be nice, so I can be me
G
I missed the last bus, we'll take the next train
Bm                 Am
I try but you see, its hard to explain.
Tap to rate this tab
# A B C D E F G H I J K L M N O P Q R S T U V W X Y Z