Song name
# A B C D E F G H I J K L M N O P Q R S T U V W X Y Z

Strokes - Juice Box tab

Sorry I'm not submitting the whole tab, but the only thing wrong in every single tab of 
this song here... it's the solo!
So i'll show you the way I play it, I think it's the proper one, hope you get it!


E|----------------------------------12-------------|
B|------17-----17-----17-----17-----12-------14bb--|
G|-15h16--15h16--15h16--15h16--14s12---------14bb--|
D|-------------------------------------------------|
A|-------------------------------------------------|
E|-------------------------------------------------|

E|-------------------------------------------------|
B|-15-15-------------------------------------------|
G|-------------15-14-------18-18-------15-14-------|
D|-------17-14-------17-15-------17-14-------17-15-|
A|-------------------------------------------------|
E|-------------------------------------------------|

E|---------------------------------------------------------|
B|---------------------------------------------------------|
G|-17------------15-14---------16------------15-14---------|
D|-----14-17-14---------17-15-------14-17-14-------17-15---|
A|---------------------------------------------------------|
E|---------------------------------------------------------|

E|----------------------------------------------------|
B|-15-15----------------------------------------------|
G|-------------15-14-------18-----------15-14---------|
D|-------17-14-------17-15-----14-17-14-------17-15---|
A|----------------------------------------------------|
E|----------------------------------------------------|

E|------------------------------------------------------------------12----|
B|-----------------------------12-15-----------17-15----------------12----|
G|----------14----14-16-14--------------16-14---------16-14---------12----|
D|-17-14-17----17-------------------------------------------17-14---------|
A|------------------------------------------------------------------------|
E|------------------------------------------------------------------------|

Great song from the strokes! Hope you enjoy this!

Gracie xx
Tap to rate this tab
 
# A B C D E F G H I J K L M N O P Q R S T U V W X Y Z