Song name
# A B C D E F G H I J K L M N O P Q R S T U V W X Y Z

Strokes - Walk On The Wild Side Live tab

-------------------------------------------------------------------------------
			     WALK ON THE WILD SIDE - The Strokes
-------------------------------------------------------------------------------
Tabbed by: Strokes_95

Tuning: Standard


Referencing this performance: https://www.youtube.com/watch?v=29GY6eBbP5c


  Main Part

e|---------------------------------------------------------------------------|
B|----7--77--77--7-77---5--55--55--5-55--------------------------------------|
G|----7--77--77--7-77---4--44--44--4-44--------------------------------------|
D|----7--77--77--7-77---5--55--55--5-55--------------------------------------|
A|---------------------------------------------------------------------------|
E|---------------------------------------------------------------------------|


  "Plucked her eyebrows on the way..."

e|------------3--------------------------------------------------------------|
B|----7---5---3---5----------------------------------------------------------|
G|----7---4---4---4----------------------------------------------------------|
D|----7---5-------5----------------------------------------------------------|
A|---------------------------------------------------------------------------|
E|---------------------------------------------------------------------------|


  "Do, Do Do, Do Do..."

e|---------------------------------------------------------------------------|
B|----7--77--77--7-77/12--12 12--12 12--12-12 12-----------------------------|
G|----7--77--77--7-77/12--12 12--12 12--12-12 12-----------------------------|
D|----7--77--77--7-77/12--12 12--12 12--12-12 12-----------------------------|
A|---------------------------------------------------------------------------|
E|---------------------------------------------------------------------------|


  @2:06 After "Take a walk on the wild side"

e|---------------------------------------------------------------------------|
B|----7----------------------------------------------------------------------|  x 2
G|----------7\4/9------------------------------------------------------------|
D|---------------------------------------------------------------------------|
A|---------------------------------------------------------------------------|
E|---------------------------------------------------------------------------|


  @2:30

e|----------------------------------55555555555555555--55--55--55--55555-----|
B|------------7--------------7-----------------------3---3---3---3-----------|
G|----7---7-9--------7---7-9--------------------------4---4---4---4----------|
D|--------------9--------------9---------------------------------------------|
A|---------------------------------------------------------------------------|
E|---------------------------------------------------------------------------|




************************************

| /   slide up
| \   slide down
| h   hammer-on
| p   pull-off
| ~   vibrato
| +   harmonic
| x   Mute note
| b   Bend
| pb  Pre-bend
| br  Bend release
| pbr Pre-bend release
| brb Bend release bend

************************************
Tap to rate this tab
# A B C D E F G H I J K L M N O P Q R S T U V W X Y Z