Song name
# A B C D E F G H I J K L M N O P Q R S T U V W X Y Z

Strokes - Automatic Stop tab

Hey Urm this is one awsome song by the Strokes my favourite
couldn't help noticing theres no great tab for the solo/chorus part
so here's what I figured it out as and I belive to be faultlesss

Tuning: e a d g b e

Play this whole thing twice

"Wait....................................
e|----------------------------------------------|
B|---11-----------------11---------------11-----|
G|---------11-----------------11----------------|
D|------11-------11--------11------11-------11--|
A|----------------------------------------------|
E|----------------------------------------------|

"I'm not gonna give it a"
e|----------------------------------------------|
B|---9------------------9----------------9------|
G|---------10-----------------10----------------|
D|------11-------11--------11------11-------11--|
A|----------------------------------------------|
E|----------------------------------------------|

"Break"
e|----------------------------------------------|
B|---7------------------7----------------7------|
G|---------8------------------8-----------------|
D|------8--------8---------8-------8--------8---|
A|----------------------------------------------|
E|----------------------------------------------|

"I'm not your"
e|-----------------------------------------------|
B|---7------------------7----------------7-------|
G|---------8------------------8------------------|
D|------8--------8---------8-------8--------8/10-|
A|-----------------------------------------------|
E|-----------------------------------------------|

"Friend"
e|----------------------------------------------|
B|----------------------------------------------|
G|---13-----11-----13----11----10--11-----------|
D|-------10-----10----10----10------------------|
A|----------------------------------------------|
E|----------------------------------------------|

"I never"
e|----------------------------------------------|
B|----------------------------------------------|
G|---13-----11-----13----11----10--13-----------|
D|-------10-----10----10----10------------------|
A|----------------------------------------------|
E|----------------------------------------------|

"....was"
e|----------------------------------------------|
B|----------------------------------------------|
G|---13-----11-----13----11----11--13-----------|
D|-------9------9-----9-----9-------------------|
A|----------------------------------------------|
E|----------------------------------------------|

"I said"
e|----------------------------------------------|
B|----------------------------------------------|
G|---13-----11-----13----11----13---------------|
D|-------9------9-----9-----9-------9/11--------|
A|----------------------------------------------|
E|----------------------------------------------|

and start again :D
Tap to rate this tab
# A B C D E F G H I J K L M N O P Q R S T U V W X Y Z