Song name
# A B C D E F G H I J K L M N O P Q R S T U V W X Y Z

Strokes - Meet Me In The Bathroom tab

I saw another tab of this song and it didnt sound right so i made this one 


E|----------------------5--|--------------------|
B|--8-----8-----8----8-----|-----8-----8--8--6--|
G|-----7-----7-----7-------|--7-----7-----------|
D|-------------------------|--------------------|
A|-------------------------|--------------------|
E|-------------------------|--------------------|

-----------------------5--|-----5-----5--7--5--|
--5-----5-----5-----5-----|--5-----5-----------|
-----5-----5-----5--------|--------------------|
--------------------------|--------------------|
--------------------------|--------------------|
--------------------------|--------------------|
Tap to rate this tab
# A B C D E F G H I J K L M N O P Q R S T U V W X Y Z