Song name
# A B C D E F G H I J K L M N O P Q R S T U V W X Y Z

Strokes - Plenty More Fish In The Sea tab

e-------------------------------------------------------------------|
B-------------------------------------------------------------------|
G-------------------------------------------------------------------|
D------------5------------------------------------------------------|
A--------5-7---8-88875----------------------------------------------|
E----555---------------87-------------------------------------------|

e-------------------------------------------------------------------|
B-------------------------------------------------------------------|
G-------------------------------------------------------------------|
D------------5------------------------------------------------------|
A--------5-7---8-88875----------------------------------------------|
E----555---------------87-------------------------------------------|
Tap to rate this tab
 
# A B C D E F G H I J K L M N O P Q R S T U V W X Y Z