Guitaretab - guitar tabs
Song name
# A B C D E F G H I J K L M N O P Q R S T U V W X Y Z

Strokes - You Only Live Once tab

Intro/Verse
gtr2
e(-----------------)
b(-----------------)
g(-----------------)x's 3
d(-9-99-9-9-9-9-9-9)
a(-7-77-7-7-7-7-7-7)
e(-----------------)

gtr2
e(-------------------------------------------------------------)
b(-------------------------------------------------------------)
g(-----------------------------11-1111-11-11-11-11-11-11-------)
d(-9-99-9-9-9-9-9---------------9--9-9--9--9--9--9--9--9-------)
a(-7-77-7-7-7-7-7-9-99-9-9-9-9-9-------------------------------)
e(----------------7-77-7-7-7-7-7-------------------------------)
gtr1
e(-------------------------------------------------------------)
b(-14-14-14-14-14-12-12-12-12-12-14-14-14-14-14-11-11-11-11-11-)
g(-13-13-13-13-13-13-13-13-13-13-11-11-11-11-11-11-11-11-11-11-)
d(-14-14-14-14-14-14-14-14-14-14-13-13-13-13-13-11-11-11-11-11-)
a(-------------------------------------------------------------)
e(-------------------------------------------------------------)

      Somepeople seem
gtr2
e(-------------------------------------------------------------)
b(-------------------------------------------------------------)
g(-----------------------------11-1111-11-11-11-11-11-11-------)
d(-9-99-9-9-9-9-9---------------9--9-9--9--9--9--9--9--9-------)
a(-7-77-7-7-7-7-7-9-99-9-9-9-9-9-------------------------------)
e(----------------7-77-7-7-7-7-7-------------------------------)
gtr1
e(-------------------------------------------------------------)
b(-14-14-14-14-14-12-12-12-12-12-14-14-14-14-14-11-11-11-11-11-)
g(-13-13-13-13-13-13-13-13-13-13-11-11-11-11-11-11-11-11-11-11-)
d(-14-14-14-14-14-14-14-14-14-14-13-13-13-13-13-11-11-11-11-11-)
a(-------------------------------------------------------------)
e(-------------------------------------------------------------)


gtr2
e(-------------------------------------------------------------)
b(-------------------------------------------------------------)
g(-----------------------------11-1111-11-11-11-11-11-11-------)
d(-9-99-9-9-9-9-9---------------9--9-9--9--9--9--9--9--9-------)
a(-7-77-7-7-7-7-7-9-99-9-9-9-9-9-------------------------------)
e(----------------7-77-7-7-7-7-7-------------------------------)
gtr1
e(-------------------------------------------------------------)
b(-14-14-14-14-14-12-12-12-12-12-14-14-14-14-14-11-11-11-12-11-)
g(-13-13-13-13-13-13-13-13-13-13-11-11-11-11-11-11-11-11-13-11-)
d(-14-14-14-14-14-14-14-14-14-14-13-13-13-13-13-11-11-11-11-11-)
a(-------------------------------------------------------------)
e(-------------------------------------------------------------)



gtr2
e(-------------------------------------------------------------)
b(-------------------------------------------------------------)
g(-----------------------------11-1111-11-11-11-11-11-11-------)
d(-9-99-9-9-9-9-9---------------9--9-9--9--9--9--9--9--9-------)
a(-7-77-7-7-7-7-7-9-99-9-9-9-9-9-------------------------------)
e(----------------7-77-7-7-7-7-7-------------------------------)
gtr1
e(-------------------------------------------------------------)
b(-14-14-14-14-14-12-12-12-12-12-14-14-14-14-14-11-11-11-11-11-)
g(-13-13-13-13-13-13-13-13-13-13-11-11-11-11-11-11-11-11-11-11-)
d(-14-14-14-14-14-14-14-14-14-14-13-13-13-13-13-11-11-11-11-11-)
a(-------------------------------------------------------------)
e(-------------------------------------------------------------)

gtr2
e(-------------------------------------------------------------)
b(-------------------------------------------------------------)
g(-----------------------------11-1111-11-11-11-11-11-11-------)
d(-9-99-9-9-9-9-9---------------9--9-9--9--9--9--9--9--9-------)
a(-7-77-7-7-7-7-7-9-99-9-9-9-9-9-------------------------------)
e(----------------7-77-7-7-7-7-7-------------------------------)
gtr1
e(-----------------------------------------------------------------------)
b(-14-14-14-14-14-12-12-12-16-16-14-12-14-14-14-14-14-11-11------19------)
g(-13-13-13-13-13-13-13-13-13-13-13-13-11-11-11-11-11-11-11-11s15--18-15-)
d(-14-14-14-14-14-14-14-14-14-14-14-14-13-13-13-13-13-11-11--------------)
a(-----------------------------------------------------------------------)
e(-----------------------------------------------------------------------)
[ Tab from: http://www.guitaretab.com/s/strokes/64344.html ]
gtr2
e(-------------------------------------------------------------)
b(-------------------------------------------------------------)
g(-----------------------------11-1111-11-11-11-11-11-11-------)
d(-9-99-9-9-9-9-9---------------9--9-9--9--9--9--9--9--9-------)
a(-7-77-7-7-7-7-7-9-99-9-9-9-9-9-------------------------------)
e(----------------7-77-7-7-7-7-7-------------------------------)
gtr1
e(-------------------------------------------------------------)
b(-14-14-14-14-14-12-12-12-12-12-14-14-14-14-14-11-11-11-11-11-)
g(-13-13-13-13-13-13-13-13-13-13-11-11-11-11-11-11-11-11-11-11-)
d(-14-14-14-14-14-14-14-14-14-14-13-13-13-13-13-11-11-11-11-11-)
a(-------------------------------------------------------------)
e(-------------------------------------------------------------)

chorus
gtr2
e(--9-9---7--11--9----------7-7--6--9---7--)
b(--9-9---9--12--11---------7-7--7--11--9--)
g(--9-9---9--13--11---------8-8--8--11--9--)
d(-11-11--9--13--11---------9-9--8--11--9--)
a(-11-11--7--11--9----------9-9--6--9---7--)
e(--9-9---7--11-------------7-7--6---------)
gtr1
e(-4--7--11--9----------------------2--6--9--7-------------)
b(-5--9--12-11-11s11s10s9s2---------4--8-11--9--9999s8s7s2-)
d(-6--9--13-11-11s11s10s9s2---------4--7-11--9--9999s8s7s2-)
g(---------------------------------------------------------)
a(---------------------------------------------------------)
e(---------------------------------------------------------)

solo

gtr2
e(--9-9---7--11--9---)
b(--9-9---9--12--11--)
g(--9-9---9--13--11--)
d(-11-11--9--13--11--)
a(-11-11--7--11--9---)
e(--9-9---7--11------)
gtr1
e(--------------------------------------------------)
b(--12b(15)r12-11------7----------------------------)
g(-----------------13-9b(11)(11)-9-----------------)
d(----------------------------------9-9s13-13-11-9--)
a(--------------------------------------------------)
e(--------------------------------------------------)
gtr2
e(-7-7--6--9---7--)
b(-7-7--7--11--9--)
g(-8-8--8--11--9--)
d(-9-9--8--11--9--)
a(-9-9--6--9---7--)
e(-7-7--6---------)
gtr1
e(--11--9-------------------------------------------)
b(--------11b(12)11---9-----------------------------)
g(-------------------11b(13)(13)11------------------)
d(---------------------------------9-9s14-14-13-9---)
a(--------------------------------------------------)
e(--------------------------------------------------)


gtr2
e(--9-9---7--11--9---)
b(--9-9---9--12--11--)
g(--9-9---9--13--11--)
d(-11-11--9--13--11--)
a(-11-11--7--11--9---)
e(--9-9---7--11------)
gtr1
e(--12--11--------------------12-----12-----9---11-11-9---------------)
b(---------1410b(11)10--10-14--14-12--12-11-11---------12--11s5------)
g(--------------------------------------------------------------------)
d(--------------------------------------------------------------------)
a(--------------------------------------------------------------------)
e(--------------------------------------------------------------------)

Repeat the Intro,Verse,and Chorus

gtr2
e(--9-9---7--11--9---)
b(--9-9---9--12--11--)
g(--9-9---9--13--11--)
d(-11-11--9--13--11--)
a(-11-11--7--11--9---)
e(--9-9---7--11------)
gtr1
e(--------------------------------------------------)
b(--12b(15)r12-11------7----------------------------)
g(-----------------13-9b(11)(11)-9-----------------)
d(----------------------------------9-9/13-13-11-9--)
a(--------------------------------------------------)
e(--------------------------------------------------)
gtr2
e(-7-7--6--9---7--)
b(-7-7--7--11--9--)
g(-8-8--8--11--9--)
d(-9-9--8--11--9--)
a(-9-9--6--9---7--)
e(-7-7--6---------)
gtr1
e(--11--9-------------------------------------------)
b(--------11b(12)11---9-----------------------------)
g(-------------------11b(13)(13)11------------------)
d(---------------------------------9-9/14-14-13-9---)
a(--------------------------------------------------)
e(--------------------------------------------------)

gtr2
e(--9-9---7--11--9---)
b(--9-9---9--12--11--)
g(--9-9---9--13--11--)
d(-11-11--9--13--11--)
a(-11-11--7--11--9---)
e(--9-9---7--11------)
gtr1
e(-12--11--------------------12-----12-----9---11-9-----------)
b(--------1410b(11)10--10-14--14-12--12-11-11-------12--11---)
g(------------------------------------------------------------)
d(------------------------------------------------------------)
a(------------------------------------------------------------)
e(------------------------------------------------------------)
gtr1
e(---------------------------)
b(-9-------------------------)
g(-11b(13)13-11--------------)
d(--------------9-9/14-14-13-)
a(---------------------------)
e(---------------------------)

outro

gtr2
e(--7--x--7-7-x-x--------7--)
b(--7--x--7-7-x-x--------7--)
g(--8--x--8-8-x-x--------8--)
d(--9--x--9-9-x-x--------9--)
a(--------------------------)
e(--------------------------)

e(--------------------------)
b(---16------16---------16r-)
g(-------16------16-----16r-)
d(-16--16--16--16-------16r-)
a(--------------------------)
e(--------------------------)


Related for You Only Live Once tab