Guitaretab - guitar tabs
Song name
# A B C D E F G H I J K L M N O P Q R S T U V W X Y Z

Strokes - Razor Blade tab

Well, I'm just doing this tab to correct some of the parts and do a little explanation
how to play this song. I won't take credit of tabbing the song, cos i didn't! so this is
a correction tab, so i figured why not write the whole thing down then? and so here it is..

    --------    --------
    |      |    |              |--|
    |      |    |              |--|     I'm only doing this for beginners
    |      |    |                      who just started playing guitar and
    |-------    --------               just want to learn a super cool song
    |                  |       |--|    and have fun. but everybody else is
    |                  |       |--|    welcome too =]
    |           -------|


It's a very fun song to play and i hope you learn it ^_^   Enjoy !


Band:  The Strokes
Album: First Impressions of Earth
Song:  Razor Blade
Tuning: Standard (E A D G B E)
Tab correction by: SquierKid71
Email: squierkid71@hotmail.com


Guitar I - Nick Valensi
Guitar II - Albert Hammond

Intro


   Guitar I (Distorted)
E|--------------------------|-----------------------|
B|--2--3--2--3--5--3--2--3--|-----------------------|
G|--2--4--2--4--6--4--2--4--|--2--4--2--4--6--4--2--|
D|--------------------------|--4--6--4--6--7--6--4--|
A|--------------------------|-----------------------|
E|--------------------------|-----------------------|

*If you want alittle anvanced way to play this (meaning sounds better) you can slide the
and pick them at the same time, if you know what i mean. OR, you can just play them like
the tab! yaaaaaaay!


   Guitar II (Clean)
E|--------------------------|--2--2-2--2-2---2-2-2--|
B|--2---2-2-2-2--2--2-2-2---|--2--2-2--2-2---2-2-2--|
G|--2---2-2-2-2--2--2-2-2---|--2--2-2--2-2---2-2-2--|
D|--2---2-2-2-2--2--2-2-2---|--4--4-4--4-4---4-4-4--|
A|--0---0-0-0-0--0--0-0-0---|--4--4-4--4-4---4-4-4--|
E|--------------------------|--2--2-2--2-2---2-2-2--|

- As for the first part of Guitar II, you can play this instead of the A major chord:

E|--5---5-5-5-5--5--5-5-5---|
B|--5---5-5-5-5--5--5-5-5---|    Which albert plays in concerts.
G|--6---6-6-6-6--6--6-6-6---|    Which is also basically the same !
D|--7---7-7-7-7--7--7-7-7---|    sounds same to me at least ! xD
A|--7---7-7-7-7--7--7-7-7---|
E|--5---5-5-5-5--5--5-5-5---|

- Btw I didn't write the strumming pattern exactly like on the song, it's just random.
listen to the song t get the strumming pattern. Its pretty easy.


E|--7p5---5-7---------------|------------------------------|
B|--7p5-7-5-7---7p5--3/5--7-|--3/5-3--3/5-3--3/5-3--3/5-3--|
G|------7-------7p6--4/6--7-|--4/6-4--4/6-4--4/6-4--4/6-4--|
D|--------------------------|------------------------------|
A|--------------------------|------------------------------|
E|--------------------------|------------------------------|

- ok this part's a bit hard. First of all, you can bar the 5th fret of the E and B
with your index finger(first finger), and the 7th fret of the same strings with your
finger(third finger) and pull-off with your ring finger on the first pull-off. On the
pull-off you can hold down the 5th and 6th fret of the B and the G sting with your index 
middle finger, and pull off the 7th fret on the B and G string with your ring finger on
G string and your pinky pulling-off on the B string. It will be hard at first, you have 
make sure that the E note(5th fret of the B string) rings when pulling-off your pinky. 
if you can't get it, you can just pick it. anyway, moving on...

E|--2--2-2--2-2-2---2-2--2--|--2--2-2--2-2-2---2-2--2-2--2-|
B|--3--3-3--3-3-3---3-3--3--|--3--3-3--3-3-3---3-3--3-3--3-|
G|--4--4-4--4-4-4---4-4--4--|--4--4-4--4-4-4---4-4--4-4--4-|
D|--4--4-4--4-4-4---4-4--4--|--4--4-4--4-4-4---4-4--4-4--4-|
A|--2--2-2--2-2-2---2-2--2--|--2--2-2--2-2-2---2-2--2-2--2-|
E|--------------------------|------------------------------|

*Same here for the strumming pattern.


The intro again just to clear it up.

  Guitar I (Distorted)
E|--------------------------|-----------------------|--7p5---5-7---------------|------------------------------|
B|--2--3--2--3--5--3--2--3--|-----------------------|--7p5---5-7---7p5--3/5--7-|--3/5-3--3/5-3--3/5-3--3/5-3--|
G|--2--4--2--4--6--4--2--4--|--2--4--2--4--6--4--2--|------7-------7p6--4/6--7-|--4/6-4--4/6-4--4/6-4--4/6-4--|
D|--------------------------|--4--6--4--6--7--6--4--|--------------------------|------------------------------|
A|--------------------------|-----------------------|--------------------------|------------------------------|
E|--------------------------|-----------------------|--------------------------|------------------------------|
 |
 |Guitar II (Clean)
E|--------------------------|--2--2-2--2-2---2-2-2--|--2--2-2--2-2-2---2-2--2--|--2--2-2--2-2-2---2-2--2-2--2-|
B|--2---2-2-2-2--2--2-2-2---|--2--2-2--2-2---2-2-2--|--3--3-3--3-3-3---3-3--3--|--3--3-3--3-3-3---3-3--3-3--3-|
G|--2---2-2-2-2--2--2-2-2---|--2--2-2--2-2---2-2-2--|--4--4-4--4-4-4---4-4--4--|--4--4-4--4-4-4---4-4--4-4--4-|
D|--2---2-2-2-2--2--2-2-2---|--4--4-4--4-4---4-4-4--|--4--4-4--4-4-4---4-4--4--|--4--4-4--4-4-4---4-4--4-4--4-|
A|--0---0-0-0-0--0--0-0-0---|--4--4-4--4-4---4-4-4--|--2--2-2--2-2-2---2-2--2--|--2--2-2--2-2-2---2-2--2-2--2-|
E|--------------------------|--2--2-2--2-2---2-2-2--|--------------------------|------------------------------|


Then comes this.


   Guitar I
E|----------------------|-----------------------|
B|--/7------7-------7\--|---3-------3------5/---|  Btw, the slide here at
G|--/7------7-------7\--|---4-------4-----------| the 5th fret is totally
D|----------------------|-----------------------|  optional, so you CAN
A|----------------------|-----------------------|     just skip it.
E|----------------------|-----------------------|
 |
 | Guitar II
E|----------------------|--2--2-2-2--2-2--2-2-2-|
B|--7--7-7-7--7-7--7-7--|--3--3-3-3--3-3--3-3-3-|
G|--7--7-7-7--7-7--7-7--|--4--4-4-4--4-4--4-4-4-|
D|--7--7-7-7--7-7--7-7--|--4--4-4-4--4-4--4-4-4-|
A|--5--5-5-5--5-5--5-5--|--2--2-2-2--2-2--2-2-2-|
E|----------------------|-----------------------|

- Well, in the first part of Guitar 2 you can play the D major chord which is exactly
instead of going all the way to the 5th and 7th fret! I prefer playing the D chord. But
whatever's easier to you hehe xD
PS: I think the strumming pattern here is pretty close, but again i prefer if you listen
the song to get it right.


Verse :


   Guitar I (Distorted)
E|--9p5---5--10/12---10--9----|--10p7---7--12/14--12--10--12-|
B|------5------------------10-|-------7----------------------|
G|----------------------------|------------------------------|   x 2
D|----------------------------|------------------------------|
A|----------------------------|------------------------------|
E|----------------------------|------------------------------|

*This sounds better played with the neck pickup to give more of a "lead" tone. I think
plays this instead of the above like in concerts or whatever:

E|----------------------------|-------------12/14--12---12---|
B|-14p10---10--15/17--15-14---|--15p12---12-----------15-----|
G|-------------------------14-|------------------------------|   x 2
D|------14--------------------|--------16--------------------|
A|----------------------------|------------------------------|
E|----------------------------|------------------------------|
 |
 | Guitar II (Clean)
E|--5---5-5-5---5-5-5-5-5-----|--7---7-7--7-7---7-7-7-7-7-7--|
B|--5---5-5-5---5-5-5-5-5-----|--7---7-7--7-7---7-7-7-7-7-7--|
G|--6---6-6-6---6-6-6-6-6-----|--7---7-7--7-7---7-7-7-7-7-7--|   x 2
D|--7---7-7-7---7-7-7-7-7-----|--9---9-9--9-9---9-9-9-9-9-9--|
A|--7---7-7-7---7-7-7-7-7-----|--9---9-9--9-9---9-9-9-9-9-9--|
E|--5---5-5-5---5-5-5-5-5-----|--7---7-7--7-7---7-7-7-7-7-7--|

Here you can just play the notes on the G, the B and the E strings. But Albert plays it
way in concerts and what not. Besides I prefer this way, its much better to make a rich,
full sounding chord  :P

And the last part, which Nick plays the same i guess..


E|--14p12----12--12/14--12------|
B|--------14---------------14\--|
G|------------------------------|
D|------------------------------|
A|------------------------------|
E|------------------------------|
 |
 |
E|--9--9--9---9--9---9---9--9---|
B|--9--9--9---9--9---9---9--9---|
G|--9--9--9---9--9---9---9--9---|
D|--11-11-11--11-11--11--11-11--|
A|--11-11-11--11-11--11--11-11--|
E|--9--9--9---9--9---9---9--9---|


*Same here, playing the notes on the G, B and E strings would be enough, but not enough
!!


Then the thing between the Verses and the prechorus goes like this:

E|-------------------------|-------------------------|
B|-------------------------|-------------------------|
G|--9--9-9-9---9-9-9-9-9---|--9--9-9-9---9-9-9-9-9---|
D|--9--9-9-9---9-9-9-9-9---|--9--9-9-9---9-9-9-9-9---|
A|--7--7-7-7---7-7-7-7-7---|--7--7-7-7---7-7-7-7-7---|
E|-------------------------|-------------------------|

   "Anything   to  forget      everything..."


The verse part once more....


   Guitar II (Distorted)
E|--9p5---5--10/12---10--9----|--10p7---7--12/14--12--10--12-|
B|------5------------------10-|-------7----------------------|
G|----------------------------|------------------------------|   x 2
D|----------------------------|------------------------------|
A|----------------------------|------------------------------|
E|----------------------------|------------------------------|
 |
 | Guitar II (Clean)
E|--5---5-5-5---5-5-5-5-5-----|--7---7-7--7-7---7-7-7-7-7-7--|
B|--5---5-5-5---5-5-5-5-5-----|--7---7-7--7-7---7-7-7-7-7-7--|
G|--6---6-6-6---6-6-6-6-6-----|--7---7-7--7-7---7-7-7-7-7-7--|   x 2
D|--7---7-7-7---7-7-7-7-7-----|--9---9-9--9-9---9-9-9-9-9-9--|
A|--7---7-7-7---7-7-7-7-7-----|--9---9-9--9-9---9-9-9-9-9-9--|
E|--5---5-5-5---5-5-5-5-5-----|--7---7-7--7-7---7-7-7-7-7-7--|


E|--14p12----12--12/14--12------|
B|--------14---------------14\--|
G|------------------------------|
D|------------------------------|
A|------------------------------|
E|------------------------------|
 |
 |
E|--9--9--9---9--9---9---9--9---|
B|--9--9--9---9--9---9---9--9---|
G|--9--9--9---9--9---9---9--9---|
D|--11-11-11--11-11--11--11-11--|
A|--11-11-11--11-11--11--11-11--|
E|--9--9--9---9--9---9---9--9---|


Prechorus thingy: (Distorted or clean)


E|-------------------------|-------------------------|
B|-------------------------|-------------------------|
G|--9--9-9-9---9-9-9-9-9---|--9--9-9-9---9-9-9-9-9---|
D|--9--9-9-9---9-9-9-9-9---|--9--9-9-9---9-9-9-9-9---|
A|--7--7-7-7---7-7-7-7-7---|--7--7-7-7---7-7-7-7-7---|
E|-------------------------|-------------------------|

  "Say it now cos in your    heart   it's   loud"

Chorus


Here you can do it two ways:
1- Both guitars play the chords.
2- 'Guitar I' plays power chords and 'Guitar II' plays the chords.

As for the 1st way :


   Guitar I & II (Both clean)
E|---------------------------|--2--2-2-2--2-2--2-2-2--2--|--2--2-2-2--2-2--2-2-2--2--|
B|--2--2-2-2--2-2--2-2-2--2--|--2--2-2-2--2-2--2-2-2--2--|--3--3-3-3--3-3--3-3-3--3--|
G|--2--2-2-2--2-2--2-2-2--2--|--2--2-2-2--2-2--2-2-2--2--|--4--4-4-4--4-4--4-4-4--4--|
D|--2--2-2-2--2-2--2-2-2--2--|--4--4-4-4--4-4--4-4-4--4--|--4--4-4-4--4-4--4-4-4--4--|
A|--0--0-0-0--0-0--0-0-0--0--|--4--4-4-4--4-4--4-4-4--4--|--2--2-2-2--2-2--2-2-2--2--|
E|---------------------------|--2--2-2-2--2-2--2-2-2--2--|---------------------------|


- You can replace the A major chord above with this chord, which is the chord that
plays in concerts:


E|--5--5-5-5--5-5--5-5-5--5--|
B|--5--5-5-5--5-5--5-5-5--5--|
G|--6--6-6-6--6-6--6-6-6--6--|
D|--7--7-7-7--7-7--7-7-7--7--|
A|--7--7-7-7--7-7--7-7-7--7--|
E|--5--5-5-5--5-5--5-5-5--5--|


Ok, so the 2nd way to do this:

[ Tab from: http://www.guitaretab.com/s/strokes/64844.html ]
   Guitar I (Distorted)
E|---------------------------|---------------------------|---------------------------|
B|---------------------------|---------------------------|---------------------------|
G|---------------------------|---------------------------|--4--4-4-4---4-4--4-4---4--|
D|--7--7-7-7---7-7--7-7---7--|--4--4-4-4---4-4--4-4---4--|--4--4-4-4---4-4--4-4---4--|
A|--7--7-7-7---7-7--7-7---7--|--4--4-4-4---4-4--4-4---4--|--2--2-2-2---2-2--2-2---2--|
E|--5--5-5-5---5-5--5-5---5--|--2--2-2-2---2-2--2-2---2--|---------------------------|
 |
 | Guitar II (Clean)
E|---------------------------|--2--2-2-2--2-2--2-2-2--2--|--2--2-2-2--2-2--2-2-2--2--|
B|--2--2-2-2--2-2--2-2-2--2--|--2--2-2-2--2-2--2-2-2--2--|--3--3-3-3--3-3--3-3-3--3--|
G|--2--2-2-2--2-2--2-2-2--2--|--2--2-2-2--2-2--2-2-2--2--|--4--4-4-4--4-4--4-4-4--4--|
D|--2--2-2-2--2-2--2-2-2--2--|--4--4-4-4--4-4--4-4-4--4--|--4--4-4-4--4-4--4-4-4--4--|
A|--0--0-0-0--0-0--0-0-0--0--|--4--4-4-4--4-4--4-4-4--4--|--2--2-2-2--2-2--2-2-2--2--|
E|---------------------------|--2--2-2-2--2-2--2-2-2--2--|---------------------------|

k so after the chorus comes the intro part again:


Guitar I (Distorted)
E|--------------------------|-----------------------|--7p5---5-7---------------|------------------------------|
B|--2--3--2--3--5--3--2--3--|-----------------------|--7p5---5-7---7p5--3/5--7-|--3/5-3--3/5-3--3/5-3--3/5-3--|
G|--2--4--2--4--6--4--2--4--|--2--4--2--4--6--4--2--|------7-------7p6--4/6--7-|--4/6-4--4/6-4--4/6-4--4/6-4--|
D|--------------------------|--4--6--4--6--7--6--4--|--------------------------|------------------------------|
A|--------------------------|-----------------------|--------------------------|------------------------------|
E|--------------------------|-----------------------|--------------------------|------------------------------|
 |
 |Guitar II (Clean)
E|--------------------------|--2--2-2--2-2---2-2-2--|--2--2-2--2-2-2---2-2--2--|--2--2-2--2-2-2---2-2--2-2--2-|
B|--2---2-2-2-2--2--2-2-2---|--2--2-2--2-2---2-2-2--|--3--3-3--3-3-3---3-3--3--|--3--3-3--3-3-3---3-3--3-3--3-|
G|--2---2-2-2-2--2--2-2-2---|--2--2-2--2-2---2-2-2--|--4--4-4--4-4-4---4-4--4--|--4--4-4--4-4-4---4-4--4-4--4-|
D|--2---2-2-2-2--2--2-2-2---|--4--4-4--4-4---4-4-4--|--4--4-4--4-4-4---4-4--4--|--4--4-4--4-4-4---4-4--4-4--4-|
A|--0---0-0-0-0--0--0-0-0---|--4--4-4--4-4---4-4-4--|--2--2-2--2-2-2---2-2--2--|--2--2-2--2-2-2---2-2--2-2--2-|
E|--------------------------|--2--2-2--2-2---2-2-2--|--------------------------|------------------------------|


   Guitar I
E|----------------------|-------------------------|
B|--/7------7-------7\--|---3-------3---------14--|  This time you have to
G|--/7------7-------7\--|---4-------4----4/14-----| slide from the 4th fret
D|----------------------|-------------------------|  to the 16th fret of
A|----------------------|-------------------------|  the G string.
E|----------------------|-------------------------|
 |
 | Guitar II
E|----------------------|--2--2-2-2--2-2--2-2-2---|
B|--7--7-7-7--7-7--7-7--|--3--3-3-3--3-3--3-3-3---|  If you want you can
G|--7--7-7-7--7-7--7-7--|--4--4-4-4--4-4--4-4-4---| end this phrase with an
D|--7--7-7-7--7-7--7-7--|--4--4-4-4--4-4--4-4-4---|  A major chord but you
A|--5--5-5-5--5-5--5-5--|--2--2-2-2--2-2--2-2-2---| have to time it right.
E|----------------------|-------------------------|


Then comes the verse part again, but this time without the second guitar.

   Guitar I (Distorted)
E|--9p5---5--10/12---10--9----|--10p7---7--12/14--12--10--12-|
B|------5------------------10-|-------7----------------------|
G|----------------------------|------------------------------|   x 2
D|----------------------------|------------------------------|
A|----------------------------|------------------------------|
E|----------------------------|------------------------------|

E|--14p12----12--12/14--12------|
B|--------14---------------14\--|
G|------------------------------|
D|------------------------------|
A|------------------------------|
E|------------------------------|

In between verses :


E|-------------------------|-------------------------|
B|-------------------------|-------------------------|
G|--9--9-9-9---9-9-9-9-9---|--9--9-9-9---9-9-9-9-9---|
D|--9--9-9-9---9-9-9-9-9---|--9--9-9-9---9-9-9-9-9---|
A|--7--7-7-7---7-7-7-7-7---|--7--7-7-7---7-7-7-7-7---|
E|-------------------------|-------------------------|


Verse again with both guitars.


and after that the prechorus and the chorus.

Then ...


                                                        |               |
             |                    |--------             |               |
------------ |                    |                     |               |
     |       |----|  |------      |           |------|  |  |------|     |
     |       |    |  |----        |-------|   |      |  |  |      |     |
     |       |    |  |                    |   |      |  |  |      |
     |       |    |  |------      --------|   |------|  |  |------|     -

Alrighty lets get to it !!


 Solo:

  Guitar I (Distorted)
E|--7p5---9p5---7p5---9p5---7p5-----|--7p5---9p5---7p5---9p5---7p5----|
B|------5-----5-----5-----5-----5---|------7-----7-----7-----7-----7--|
G|----------------------------------|---------------------------------|
D|----------------------------------|---------------------------------|
A|----------------------------------|---------------------------------|
E|----------------------------------|---------------------------------|
 |
 |Guitar II (Clean)
E|----------------------------------|--2--2-2-2-2--2-2-2--2-2--2-2-2--|
B|--2--2-2-2-2--2-2-2--2-2--2-2-2---|--2--2-2-2-2--2-2-2--2-2--2-2-2--|
G|--2--2-2-2-2--2-2-2--2-2--2-2-2---|--2--2-2-2-2--2-2-2--2-2--2-2-2--|
D|--2--2-2-2-2--2-2-2--2-2--2-2-2---|--4--4-4-4-4--4-4-4--4-4--4-4-4--|
A|--0--0-0-0-0--0-0-0--0-0--0-0-0---|--4--4-4-4-4--4-4-4--4-4--4-4-4--|
E|----------------------------------|--2--2-2-2-2--2-2-2--2-2--2-2-2--|


E|--12p10----14p10----12p10----14p10----12p10-----12--10---x-12--10--12-|
B|--------10-------10-------10-------10-------10/-14--12---x-14--12--14-|
G|----------------------------------------------------------------------|
D|----------------------------------------------------------------------|
A|----------------------------------------------------------------------|
E|----------------------------------------------------------------------|
 |
 |
E|--2--2-2-2-2--2-2-2--2-2--2-2-2--2-2-2--2-2-2-2--2-2-2--2-2--2-2-2--2-|
B|--3--3-3-3-3--3-3-3--3-3--3-3-3--3-3-2--3-3-3-3--3-3-3--3-3--3-3-3--3-|
G|--4--4-4-4-4--4-4-4--4-4--4-4-4--4-4-2--4-4-4-4--4-4-4--4-4--4-4-4--4-|
D|--4--4-4-4-4--4-4-4--4-4--4-4-4--4-4-4--4-4-4-4--4-4-4--4-4--4-4-4--4-|
A|--2--2-2-2-2--2-2-2--2-2--2-2-2--2-2-4--2-2-2-2--2-2-2--2-2--2-2-2--2-|
E|----------------------------------------------------------------------|

   Hold the bend then gragually release.
E|----------------------------------------|-----------------------------|
B|----------------------------------------|-----------------------------|
G|--11b13(hold bend)r11----11---11----11--|-------10~-------------------|
D|----------------------------------------|-----------------------------|
A|----------------------------------------|-----------------------------|
E|----------------------------------------|-----------------------------|
 |
 |
E|-------------------------2--2-2--2--2---|--2--2-2--2--2-2---2--2--2---|
B|--2--2-2--2--2-2-2--2----2--2-2--2--2---|--3--3-3--3--3-3---3--3--3---|
G|--2--2-2--2--2-2-2--2----2--2-2--2--2---|--4--4-4--4--4-4---4--4--4---|
D|--2--2-2--2--2-2-2--2----4--4-4--4--4---|--4--4-4--4--4-4---4--4--4---|
A|--0--0-0--0--0-0-0--0----4--4-4--4--4---|--2--2-2--2--2-2---2--2--2---|
E|-------------------------2--2-2--2--2---|-----------------------------|

E|--12--10---x-12--10--12\---|
B|--14--12---x-14--12--14\---|
G|---------------------------|
D|---------------------------|
A|---------------------------|
E|---------------------------|
 |
 |
E|--2--2-2--2--2--2-2--2--2--|
B|--3--3-3--3--3--3-3--3--3--|
G|--4--4-4--4--4--4-4--4--4--|
D|--4--4-4--4--4--4-4--4--4--|
A|--2--2-2--2--2--2-2--2--2--|
E|---------------------------|


E|----9----------12--10--|---9----12-10---9----12-10--|
B|----10---------14--12--|---10---14-12---10---14-12--|
G|-----------------------|----------------------------|
D|-----------------------|----------------------------|
A|-----------------------|----------------------------|
E|-----------------------|----------------------------|
 |
 |
E|-----------------------|--2--2-2--2--2--2-2-2--2--2-|
B|--2--2-2---2--2-2--2---|--2--2-2--2--2--2-2-2--2--2-|
G|--2--2-2---2--2-2--2---|--2--2-2--2--2--2-2-2--2--2-|
D|--2--2-2---2--2-2--2---|--4--4-4--4--4--4-4-4--4--4-|
A|--0--0-0---0--0-0--0---|--4--4-4--4--4--4-4-4--4--4-|
E|-----------------------|--2--2-2--2--2--2-2-2--2--2-|


E|---9-----12--10---9~--------------------------------|
B|---10----14--12---10~-------------------------------|
G|----------------------------------------------------|
D|----------------------------------------------------|
A|----------------------------------------------------|
E|----------------------------------------------------|
 |
 |
E|--2--2--2-2-2--2--2-2---2--2--2-2--2-2-2--2-2--2-2--|
B|--3--3--3-3-3--3--3-3---3--3--3-3--3-3-3--3-3--3-3--|
G|--4--4--4-4-4--4--4-4---4--4--4-4--4-4-4--4-4--4-4--|
D|--4--4--4-4-4--4--4-4---4--4--4-4--4-4-4--4-4--4-4--|
A|--2--2--2-2-2--2--2-2---2--2--2-2--2-2-2--2-2--2-2--|
E|----------------------------------------------------|


On the second part of the solo, Nick plays this instead in conerts, i guess its cos its easier:


E|------------------------------------------------|
B|--12p10----14p10----12p10----14p10----12p10-----|
G|--------11-------11-------11-------11-------11--|
D|------------------------------------------------|
A|------------------------------------------------|
E|------------------------------------------------|

After the solo the intro tune is played yet again ..

Guitar I (Distorted)
E|--------------------------|-----------------------|--7p5---5-7---------------|------------------------------|
B|--2--3--2--3--5--3--2--3--|-----------------------|--7p5---5-7---7p5--3/5--7-|--3/5-3--3/5-3--3/5-3--3/5-3--|
G|--2--4--2--4--6--4--2--4--|--2--4--2--4--6--4--2--|------7-------7p6--4/6--7-|--4/6-4--4/6-4--4/6-4--4/6-4--|
D|--------------------------|--4--6--4--6--7--6--4--|--------------------------|------------------------------|
A|--------------------------|-----------------------|--------------------------|------------------------------|
E|--------------------------|-----------------------|--------------------------|------------------------------|
 |
 |Guitar II (Clean)
E|--------------------------|--2--2-2--2-2---2-2-2--|--2--2-2--2-2-2---2-2--2--|--2--2-2--2-2-2---2-2--2-2--2-|
B|--2---2-2-2-2--2--2-2-2---|--2--2-2--2-2---2-2-2--|--3--3-3--3-3-3---3-3--3--|--3--3-3--3-3-3---3-3--3-3--3-|
G|--2---2-2-2-2--2--2-2-2---|--2--2-2--2-2---2-2-2--|--4--4-4--4-4-4---4-4--4--|--4--4-4--4-4-4---4-4--4-4--4-|
D|--2---2-2-2-2--2--2-2-2---|--4--4-4--4-4---4-4-4--|--4--4-4--4-4-4---4-4--4--|--4--4-4--4-4-4---4-4--4-4--4-|
A|--0---0-0-0-0--0--0-0-0---|--4--4-4--4-4---4-4-4--|--2--2-2--2-2-2---2-2--2--|--2--2-2--2-2-2---2-2--2-2--2-|
E|--------------------------|--2--2-2--2-2---2-2-2--|--------------------------|------------------------------|


E|----------------------|-----------------------|
B|---7~--------------\--|---3--------------14~--|
G|---7~--------------\--|---4---------4/14------|  *Last bit here plays
D|----------------------|-----------------------|  without second guitar.
A|----------------------|-----------------------|
E|----------------------|-----------------------|

And thats it! Congratulations now you can play Razorblade by the Strokes! Quick go tell
mates about it! =]
Related for Razor Blade tab
Advertisement will be closed in 10 seconds