Song name
# A B C D E F G H I J K L M N O P Q R S T U V W X Y Z

Strokes - Ize Of The World tab

Tabbed by: Fernando Maravilla
Artist: The Strokes
Song: Ize Of The World
Album: First Impressions Of Earth

Tuning: Standard

Note: This is only for one Guitar. It will serve you as a guide along your way. 
i'll get to work on the second guitar soon. This has got to be one of the Strokes best
songs. This song took 2 hours to figure out/tab out so leave me suggestions/comments.
 
Enjoy.

Intro: One Guitar(most likely Nick) gives feedback while (presumably) Albert plays this.
e|---------------------------------------------------------------------------|
B|---------------------------------------------------------------------------|
G|---------------------------------------------------------------------------|
D|-9-9-11-14-13--5-5-7-10-9--------------------------------------------------|
A|-7-7--9-12-11--3-3-5--8-7--------------------------------------------------|
E|---------------------------------------------------------------------------|

Verse 

Chords: Figure Out the Strumming Pattern Yourself.
e|---------------------------------------------------------------------------|
B|---------------------------------------------------------------------------|
G|-11-----14-----8-----9-----------------------------------------------------|
D|-11-----14-----8-----9-----------------------------------------------------|
A|--9-----12-----6-----7-----------------------------------------------------|
E|---------------------------------------------------------------------------|

Then It Switches To
e|-4-4-4--4--4---------------------------------------------------------------|
B|-5-5-5--5--5--4-4-4--5--5--------------------------------------------------|
G|-6-6-6--6--6--2-2-2--2--2--------------------------------------------------|
D|-6-6-6--6--6---------------------------------------------------------------|
A|---------------------------------------------------------------------------|
E|---------------------------------------------------------------------------|

Then...
e|-12~----11~----12~---11~--12-11-9-7--12~---11~-----------------------------|
B|-10~-----9~----10~----9~--12-12-9-7--10~----9~----16-----------------------|
G|-11~-----9~----11~----9~-------------11~----9~-----x-----------------------|
D|--------------------------------------------------18-----------------------|
A|---------------------------------------------------------------------------|
E|---------------------------------------------------------------------------|
(Play Last Chord/Transition to Chorus A Bunch Of Times)

Chorus: 

e|-6-7-----6-7-----6-7-----6-7--------10-11-----10-11-----10-11-----10-11--------|
B|-----9-------9-------9-------9------------9---------9---------9---------9------|
G|-------9-------9-------9-------9------------8---------8---------8---------8----|
D|-------------------------------------------------------------------------------| 2X
A|-------------------------------------------------------------------------------|
E|-------------------------------------------------------------------------------|

e|-15-16-------15-16-------15-16-------15-16-------15--10-11-----10-11-----10-11-----10-11--------|
B|-------12----------12----------12----------12--------------9---------9---------9---------9------|
G|----------13----------13----------13----------13-------------8---------8---------8---------8----|
D|------------------------------------------------------------------------------------------------|
A|------------------------------------------------------------------------------------------------|
E|------------------------------------------------------------------------------------------------|

e|-6-7-----6-7-----6-7-----6-7--------10-11-----10-11-----10-11-----10-11--------|
B|-----9-------9-------9-------9------------9---------9---------9---------9------|
G|-------9-------9-------9-------9------------8---------8---------8---------8----|
D|-------------------------------------------------------------------------------|
A|-------------------------------------------------------------------------------|
E|-------------------------------------------------------------------------------|

e|-15-16-------15-16-------15-16-------15-16---------------------------------|
B|-------12----------12----------12----------12------------------------------|
G|----------13----------13----------13----------13---------------------------|
D|---------------------------------------------------------------------------| 2X
A|---------------------------------------------------------------------------|
E|---------------------------------------------------------------------------|

e|-15-16-------15-16-------15-16-------15-16----16/17------------------------|
B|-------12----------12----------12----------12------------------------------|
G|----------13----------13----------13---------------------------------------|
D|---------------------------------------------------------------------------|
A|---------------------------------------------------------------------------|
E|---------------------------------------------------------------------------|

e|-15-16-------15-16-------15-16-------15-16---------------------------------|
B|-------12----------12----------12----------12------------------------------|
G|----------13----------13----------13----------13---------------------------|
D|---------------------------------------------------------------------------|
A|---------------------------------------------------------------------------|
E|---------------------------------------------------------------------------|

e|-6-7-----6-7-----6-7-----6-7--------10-11-----10-11-----10-11-----10-11--------|
B|-----9-------9-------9-------9------------9---------9---------9---------9------|
G|-------9-------9-------9-------9------------8---------8---------8---------8----|
D|-------------------------------------------------------------------------------| 
A|-------------------------------------------------------------------------------|
E|-------------------------------------------------------------------------------|

e|-15-16-------15-16-------15-16-------15-16-------15--10-11-----10-11-----10-11-----10-11--------|
B|-------12----------12----------12----------12--------------9---------9---------9---------9------|
G|----------13----------13----------13----------13-------------8---------8---------8---------8----|
D|------------------------------------------------------------------------------------------------|
A|------------------------------------------------------------------------------------------------|
E|------------------------------------------------------------------------------------------------|

Solo (check other person's solo for solo. it's pretty accurate)

Start from Verse part again.

Last Chorus: 

e|-6-7-----6-7-----6-7-----6-7--------10-11-----10-11-----10-11-----10-11--------|
B|-----9-------9-------9-------9------------9---------9---------9---------9------|
G|-------9-------9-------9-------9------------8---------8---------8---------8----|
D|-------------------------------------------------------------------------------| 2X
A|-------------------------------------------------------------------------------|
E|-------------------------------------------------------------------------------|

e|-15-16-------15-16-------15-16-------15-16-------15--10-11-----10-11-----10-11-----10-11--------|
B|-------12----------12----------12----------12--------------9---------9---------9---------9------|
G|----------13----------13----------13----------13-------------8---------8---------8---------8----|
D|------------------------------------------------------------------------------------------------|
A|------------------------------------------------------------------------------------------------|
E|------------------------------------------------------------------------------------------------|

e|-6-7-----6-7-----6-7-----6-7--------10-11-----10-11-----10-11-----10-11--------|
B|-----9-------9-------9-------9------------9---------9---------9---------9------|
G|-------9-------9-------9-------9------------8---------8---------8---------8----|
D|-------------------------------------------------------------------------------|
A|-------------------------------------------------------------------------------|
E|-------------------------------------------------------------------------------|

e|-15-16-------15-16-------15-16-------15-16---------------------------------|
B|-------12----------12----------12----------12------------------------------|
G|----------13----------13----------13----------13---------------------------|
D|---------------------------------------------------------------------------| 2X
A|---------------------------------------------------------------------------|
E|---------------------------------------------------------------------------|

e|-15-16-------15-16-------15-16-------15-16----16/17------------------------|
B|-------12----------12----------12----------12------------------------------|
G|----------13----------13----------13---------------------------------------|
D|---------------------------------------------------------------------------|
A|---------------------------------------------------------------------------|
E|---------------------------------------------------------------------------|

e|-15-16-------15-16-------15-16-------15-16---------------------------------|
B|-------12----------12----------12----------12------------------------------|
G|----------13----------13----------13----------13---------------------------|
D|---------------------------------------------------------------------------|
A|---------------------------------------------------------------------------|
E|---------------------------------------------------------------------------|

e|-16^^^^^^^^^^^^^^^^^^^^^^^^^^^^^^^^^^^^^^^^^^^^----------------------------|
B|--(^ Means Bend)-----------------------------------------------------------|
G|---------------------------------------------------------------------------|
D|---------------------------------------------------------------------------|
A|---------------------------------------------------------------------------|
E|---------------------------------------------------------------------------|

e|-6-7-----6-7-----6-7-----6-7--------10-11-----10-11-----10-11-----10-11--------|
B|-----9-------9-------9-------9------------9---------9---------9---------9------|
G|-------9-------9-------9-------9------------8---------8---------8---------8----|
D|-------------------------------------------------------------------------------| 2X 
A|-------------------------------------------------------------------------------|
E|-------------------------------------------------------------------------------|

End on 

e|-10-|

Questions? Comments? Send it all to: i_heart_interpol@hotmail.com
==============================================================================

Tap to rate this tab
 
# A B C D E F G H I J K L M N O P Q R S T U V W X Y Z