Song name
# A B C D E F G H I J K L M N O P Q R S T U V W X Y Z

Strokes - Electricityscape tab

-------------------------------------------------------------------------------
			     Electricityscape - The Strokes
-------------------------------------------------------------------------------
Tabbed by: Tom Nguyen
Email: N/A

Tuning: Standard
                       2x
e|---------------------------------------------------------------------------|
B|--12--14--12--11---12---16---14---11---------------------------------------|
G|---------------------------------------------------------------------------|
D|--9---11--9---8----9----13---11---8----------------------------------------|
A|---------------------------------------------------------------------------|
E|---------------------------------------------------------------------------|

e|---------------------------------------------------------------------------|
B|--------12-------14--------16-------11-------9------7----------------------|
G|---------------------------------------------------------------------------|
D|--11/13-----13/14----14/16----16\11-----11\9----9\8------------------------|
A|---------------------------------------------------------------------------|
E|---------------------------------------------------------------------------|

e|---------------------------------------------------------------------------|
B|--12--14--12--11---12---16---14---11---------------------------------------|
G|---------------------------------------------------------------------------|
D|--9---11--9---8----9----13---11---8----------------------------------------|
A|---------------------------------------------------------------------------|
E|---------------------------------------------------------------------------|



| /  slide up
| \  slide down
| h  hammer-on
| p  pull-off
| ~  vibrato
| +  harmonic
| x  Mute note
===============================================================================
Tap to rate this tab
 
# A B C D E F G H I J K L M N O P Q R S T U V W X Y Z