Song name
# A B C D E F G H I J K L M N O P Q R S T U V W X Y Z

Strokes - Vision Of Division tab

-------------------------------------------------------------------------------
			     SONG NAME - Band Name
-------------------------------------------------------------------------------
Tabbed by:
Email:

Heres some of it

Intro 1
e|---------------------------------------------------------------------------|
B|---------------------------------------------------------------------------|
G|---------------------------------------------------------------------------|
D|---------------------12-----------------12---------------------------------|
A|-14---17---14---12---x----12---11--11---x----7---7-------------------------|
E|-0----0----0----0----0----0----0---0----0----0---0-------------------------|

Intro 2
e|-12-x8----15--x4---14--x4--------------------------------------------------|
B|-12-------12-------12------------------------------------------------------|
G|---------------------------------------------------------------------------|
D|---------------------------------------------------------------------------|
A|---------------------------------------------------------------------------|
E|---------------------------------------------------------------------------|

e|-12-x8-----10--x4----10-x4-------------------------------------------------|
B|-12--------12--------11----------------------------------------------------|
G|---------------------------------------------------------------------------|
D|---------------------------------------------------------------------------|
A|---------------------------------------------------------------------------|
E|---------------------------------------------------------------------------|

e|--11-x8--11--x8------12-x4-------------------------------------------------|
B|--11-----12----------12----------------------------------------------------|
G|---------------------------------------------------------------------------|
D|---------------------------------------------------------------------------|
A|---------------------------------------------------------------------------|
E|---------------------------------------------------------------------------|

e|------------- 5----|--7----5--------------|-------------------------------|
B|5----6----4---------------------9----6----|--5----5----6----9--------------|
G|---------------------------------------------------------------------------|
D|---------------------------------------------------------------------------|
A|---------------------------------------------------------------------------|
E|---------------------------------------------------------------------------|

e|5----7----5------------------------0-7-0-8-0-7-0-5-0-7-0-7-8-0-7-0|
B|----------------9------6----5----------------------------------------------|
G|---------------------------------------------------------------------------|
D|---------------------------------------------------------------------------|
A|---------------------------------------------------------------------------|
E|---------------------------------------------------------------------------|

e|0-12-0-10-12-10-0-8-10-8-0-7-8-7-0-5---------------------------------------|
B|---------------------------------------------------------------------------|
G|---------------------------------------------------------------------------|
D|---------------------------------------------------------------------------|
A|---------------------------------------------------------------------------|
E|---------------------------------------------------------------------------|

someone can build from that, any question thepsychedelicunicorns@hotmail.com


| /  slide up
| \  slide down
| h  hammer-on
| p  pull-off
| ~  vibrato
| +  harmonic
| x  Mute note
===============================================================================
Tap to rate this tab
# A B C D E F G H I J K L M N O P Q R S T U V W X Y Z