Song name
# A B C D E F G H I J K L M N O P Q R S T U V W X Y Z

Strokes - Fear Of Sleep tab

Fear Of Sleep
The Strokes

-h=hammer on

e|-6-|-6-|
B|-8-|-6-|
G|---|---|
D|---|---|
A|---|---|
E|---|---|


e|-6-|-11-|-11-|-11-|
B|-8-|-13-|-11-|-13-|
G|---|----|----|----|
D|---|----|----|----|
A|---|----|----|----|
E|---|----|----|----|


e|-6-|-6-|
B|-8-|-6-|
G|---|---|
D|---|---|
A|---|---|
E|---|---|


e|-6-|-11-|-11-|-11-|
B|-8-|-13-|-11-|-13-|
G|---|----|----|----|
D|---|----|----|----|
A|---|----|----|----|
E|---|----|----|----|


e|-6-|-6-|
B|-8-|-6-|
G|---|---|
D|---|---|
A|---|---|
E|---|---|

         -h -h
e|-----------------|
B|-11-13-14-15-----|
G|--------------13-|
D|-----------------|
A|-----------------|
E|-----------------|

"40" 'Fear of sleep'
 
     Fm        D# 
e|-1-|-1-| |---|---||---|---|---|---|
B|-1-|-1-| |-8-|-8-||-8-|-8-|-8-|-8-|
G|-1-|-1-| |-8-|-8-||-8-|-8-|-8-|-8-|
D|-3-|-3-| |-8-|-8-||-8-|-8-|-8-|-8-|
A|---|---| |-6-|-6-||-6-|-6-|-6-|-6-|
E|---|---| |---|---||---|---|---|---|

         G#                A#
e|-4-|-4-|-4-|-4-| |-6-|-6-|-6-|-6-|
B|-4-|-4-|-4-|-4-| |-6-|-6-|-6-|-6-|
G|-5-|-5-|-5-|-5-| |-7-|-7-|-7-|-7-|
D|-6-|-6-|-6-|-6-| |-8-|-8-|-8-|-8-|
A|---|---|---|---| |---|---|---|---|
E|---|---|---|---| |---|---|---|---|

D# x16         A# x16

e|---|    |-6-|-6-|-6-|-6-|
B|-8-|    |-6-|-6-|-6-|-6-|
G|-8-|    |-7-|-7-|-7-|-7-|
D|-8-|    |-8-|-8-|-8-|-8-|
A|-6-|    |---|---|---|---|
E|---|    |---|---|---|---|

'Your no fun...your no fun...

e|-4-|    |---|       e|-4-|    |---|       e|-4-|    |---| 
B|-4-|    |-8-|       B|-4-|    |-8-|       B|-4-|    |-8-|
G|-5-| x8 |-8-| x8    G|-5-| x8 |-8-| x8    G|-5-| x8 |-8-| x8
D|-6-|    |-8-|       D|-6-|    |-8-|       D|-6-|    |-8-|
A|-6-|    |-6-|       A|-6-|    |-6-|       A|-6-|    |-6-|
E|---|    |---|       E|---|    |---|       E|---|    |---| 


e|-4-|    |---|       e|-4-|    |---|       e|-4-|    |---|
B|-4-|    |-8-|       B|-4-|    |-8-|       B|-4-|    |-8-|
G|-5-| x8 |-8-| x8    G|-5-| x8 |-8-| x8    G|-5-| x8 |-8-| x8
D|-6-|    |-8-|       D|-6-|    |-8-|       D|-6-|    |-8-|
A|---|    |-6-|       A|---|    |-6-|       A|---|    |-6-|
E|---|    |---|       E|---|    |---|       E|---|    |---|    


e|-6-|-6-|-8-|-6-||-6-|-6-|-8-|-6-|
B|-8-|-6-|-9-|-6-||-8-|-6-|-9-|-6-|
G|---|---|---|---||---|---|---|---|
D|---|---|---|---||---|---|---|---|
A|---|---|---|---||---|---|---|---|
E|---|---|---|---||---|---|---|---|

then repeat for the rest of the song.
enjoy.
thestrokes1@hotmail.com


Tap to rate this tab
# A B C D E F G H I J K L M N O P Q R S T U V W X Y Z