Song name
# A B C D E F G H I J K L M N O P Q R S T U V W X Y Z

Strokes - Obstinate tab

Band: The strokes
In transit DVD - Obstinate

Hey Guys, heres the intro,its pretty easy, Im working on the keyboard tab and chords. 
wanted to submit this tab as soon as possible cuz theres no obstinate guitar tab on 
net, or at least I couldnt find it.

 e----5---7---5----------5---7---5--|
 B -7---7---7---7------7---7---7----|
 G ---------------------------------|
 D ---------------------------------|
 A ---------------------------------|
 E ---------------------------------|


 e 9--11--9--9--x3--9-13-11-9-------|
 B 9--11--9--9------9-13-11-9-------|
 G ---------------------------------|
 D ---------------------------------|
 A ---------------------------------|
 E ---------------------------------|

Yeah but thats it...

LONG LIVE THE STROKES.......
Tap to rate this tab
# A B C D E F G H I J K L M N O P Q R S T U V W X Y Z