Guitaretab - guitar tabs
Song name
# A B C D E F G H I J K L M N O P Q R S T U V W X Y Z

Strokes - New York City Girls tab

the strokes - new york city girls (live)

heavy overdrive, bridge humbucker/single coil slight reverb to emulate live sound

riff 1
e----------------------------------------------------------------------------|
B----------------------------------------------------------------------------|
G----------------------------------------------------------------------------|
D----------------------------------------------------------------------------|
A---7--7--7--7--7--7--7--7--5p---5----7--7--7--7--7--7--7--7--5--5----5------|
E12/5--5--5--5--5--5--5--5--3p0--3p0--3--5--5--5--5--5--5--5--5--3p0--3p0--3-|

e----------------------------------------------------------------------------|
B----------------------------------------------------------------------------|
G----------------------------------------------------------------------------|
D----------------------------------------------------------------------------|
A---7--7--7--7--7--7--7--7--5p---5----7--7--7--7--7--7--7--7--5----5----5----|
E12/5--5--5--5--5--5--5--5--3p0--3p0--3--5--5--5--5--5--5--5--5--3p0--3p0--3-|


riff 2

e--------------------------------------------------------------|
B--------------------------------------------------------------|
G-14--14--14--14--14--14--14--14--12h14--14--14--12h14--14--14-|
D-14--14--14--14--14--14--14--14--12h14--14--14--12h14--14--14-|
A-12--12--12--12--12--12--12--12--12-12--12--12--12-12--12--12-|
E--------------------------------------------------------------|

e--------------------------------------------------------------|
B--------------------------------------------------------------|
G-12--12--12--12--12--12--12--12--10h12--12--12--10h12--12--12-|
D-12--12--12--12--12--12--12--12--10h12--12--12--10h12--12--12-|
A-10--10--10--10--10--10--10--10--10-10--10--10--10-10--10--10-|
E--------------------------------------------------------------|

e-----------------------------------------------|
B-----------------------------------------------|
G-7--7--7--7--7--7--7--7--5h7--7--7--5h7--7--7--|
D-7--7--7--7--7--7--7--7--5h7--7--7--5h7--7--7--|
A-5--5--5--5--5--5--5--5--5-5--5--5--5-5--5--5--|
E-----------------------------------------------|

[ Tab from: http://www.guitaretab.com/s/strokes/82971.html ]
e-----------------------------------------------|
B-----------------------------------------------|
G-9--9--9--9--9--9--9--9--7h9--9--9--7h9--9--9--|
D-9--9--9--9--9--9--9--9--7h9--9--9--7h9--9--9--|
A-7--7--7--7--7--7--7--7--7-7--7--7--7-7--7--7--|
E-----------------------------------------------|

riff 3

e-8--8--8--8--8--8--8--8---8--8--8--8--8--8--8--8--|
B-8--8--8--8--8--8--8--8---10-10-10-10-10-10-10-10-|
G-9--9--9--9--9--9--9--9---10-10-10-10-10-10-10-10-|
D-10-10-10-10-10-10-10-10--10-10-10-10-10-10-10-10-|
A-10-10-10-10-10-10-10-10--8--8--8--8--8--8--8--8--|
E-8--8--8--8--8--8--8--8---------------------------|

e-8--8--8--8--8--8--8--8---8--8--8--8--8--8--8--8--|
B-8--8--8--8--8--8--8--8---10-10-10-10-10-10-10-10-|
G-9--9--9--9--9--9--9--9---10-10-10-10-10-10-10-10-|
D-10-10-10-10-10-10-10-10--10-10-10-10-10-10-10-10-|
A-10-10-10-10-10-10-10-10--8--8--8--8--8--8--8--8--|
E-8--8--8--8--8--8--8--8---------------------------|

solo

e-------------------------------------------------------------|
B-------------------------------------------------------------|
G-14b(16)~~--12--14--12--14b(16)r(14)p12-------15b(17)-13-----|
D-----------------------------------------14---------------14-|
A-------------------------------------------------------------|
E-------------------------------------------------------------|

e---------------------------------------------------|
B-12--13--12--12h-13p-12h-13p-12h-13p-12h-13p-12----|
G------------------------------------------------12-|
D---------------------------------------------------|
A---------------------------------------------------|
E---------------------------------------------------|

e-----------------------------------------------|
B-----------------------------------------------|
G---13--15--13--15--13----12--15--12--15--12----|
D-14--14--14--14--14--14----12--12--12--12--12--|
A-----------------------------------------------|
E-----------------------------------------------|

e-----------------------------------------------|
B-----------------------------------------------|
G---13--15--13--15--13----12--15--12--15--12----|
D-14--14--14--14--14--14----12--12--12--12--12--|
A-----------------------------------------------|
E-----------------------------------------------|

repeat riffs 1-3 where appropriate
Related for New York City Girls tab
Advertisement will be closed in 10 seconds