Song name
# A B C D E F G H I J K L M N O P Q R S T U V W X Y Z

Stromae - Tous Les Memes tab

So I didn't see this tab here so i thought let's figure it out and post it. 
Notice that this is my first tab and I would like some feedback or adjustments. 

Capo 1 - Relative
 
Intro
e | ---------------------------------------------------------|
B | ---------------------------------------------------------|
G | -0--------0-----5-5-4-2--2-4-0----0----0-----0-----------|
D | ------4-2---4-2--------------------4-2---4-2---4--2-1----|
A | ---------------------------------------------------------|
E | ---------------------------------------------------------|

Couplet1 + Reff
e | -----------------------------------2---------------------|
B | ----0----------1---------1---------0---------------------|
G | ----0-0--------2-2-------2-2-------2---------------------|
D | -------------2---------------------1---------------------|
A | -----------0---------------------2-2---------------------|
E | -0---------------------2-----------X---------------------| 6 X

Instrumental
e | ---0---------0----------0----2---------------------------|
B | -0---0--1--1---1------1---4------------------------------|
G | ------------------2-2------------------------------------|
D | ---------------------------------------------------------|
A | ---------------------------------------------------------|
E | ---------------------------------------------------------| 2 X

Couplet2 + Reff
e | -0---------------------------------2---------------------|
B | -0-----------------------1---------0---------------------|
G | -0-----------------------2-2-------2---------------------|
D | -2---------------------------------1---------------------|
A | -2-------------------------------2-2---------------------|
E | -0---------------------2-----------X---------------------| 

e | -----------------------------------2---------------------|
B | ----0----------1---------1---------0---------------------|
G | ----0-0--------2-2-------2-2-------2---------------------|
D | -------------2---------------------1---------------------|
A | -----------0---------------------2-2---------------------|
E | -0---------------------2-----------X---------------------| 4 X

e | ---------------------------------------------------------|
B | ----0----------1---------1-------------------------------|
G | ----0-0--------2-2-------2-2-----------------------------|
D | -------------2-------------------------------------------|
A | -----------0---------------------------------------------|
E | -0---------------------2---------------------------------|

e | -----------------------------------2---------------------|
B | ----0----------1---------1---------0---------------------|
G | ----0-0--------2-2-------2-2-------2---------------------|
D | -------------2---------------------1---------------------|
A | -----------0---------------------2-2---------------------|
E | -0---------------------2-----------X---------------------| 2 X

Instrumental
e | ---0---------0----------0----2---------------------------|
B | -0---0--1--1---1------1---4------------------------------|
G | ------------------2-2------------------------------------|
D | ---------------------------------------------------------|
A | ---------------------------------------------------------|
E | ---------------------------------------------------------| 4 X

Couplet 3
e | -0---------------------------------2---------------------|
B | -0-----------------------1---------0---------------------|
G | -0-----------------------2-2-------2---------------------|
D | -2---------------------------------1---------------------|
A | -2-------------------------------2-2---------------------|
E | -0---------------------2-----------X---------------------| 

e | -----------------------------------2---------------------|
B | ----0----------1---------1---------0---------------------|
G | ----0-0--------2-2-------2-2-------2---------------------|
D | -------------2---------------------1---------------------|
A | -----------0---------------------2-2---------------------|
E | -0---------------------2-----------X---------------------| 3 X

Solo Bridge
e | ----3-0---2----------0-3-2------3------------------------|
B | --0-----3---3--1-1-0--------4-0--------------------------|
G | ---------------------------------------------------------|
D | ---------------------------------------------------------|
A | ---------------------------------------------------------|
E | ---------------------------------------------------------| 

e | ----3-0---2----------0--------2-0------------------------|
B | --0-----3---3--1-1-0---1-0--4----------------------------|
G | ---------------------------------------------------------|
D | ---------------------------------------------------------|
A | ---------------------------------------------------------|
E | ---------------------------------------------------------| 

e | ----3-0---2----------0-3-2------3------------------------|
B | --0-----3---3--1-1-0--------4-0--------------------------|
G | ---------------------------------------------------------|
D | ---------------------------------------------------------|
A | ---------------------------------------------------------|
E | ---------------------------------------------------------| 

e | ----3-0---2----------0--------2-0------------------------|
B | --0-----3---3--1-1-0---1-0--4----------------------------|
G | ---------------------------------------------------------|
D | ---------------------------------------------------------|
A | ---------------------------------------------------------|
E | ---------------------------------------------------------| 

Reff
e | -----------------------------------2---------------------|
B | ----0----------1---------1---------0---------------------|
G | ----0-0--------2-2-------2-2-------2---------------------|
D | -------------2---------------------1---------------------|
A | -----------0---------------------2-2---------------------|
E | -0---------------------2-----------X---------------------| 2 X

Instrumental
e | ---0---------0----------0----2---------------------------|
B | -0---0--1--1---1------1---4------------------------------|
G | ------------------2-2------------------------------------|
D | ---------------------------------------------------------|
A | ---------------------------------------------------------|
E | ---------------------------------------------------------| 4 X

Solo
e | ---------------------------------------------------------|
B | -0------0--0h1p0----0------0-1p0-------------------------|
G | ------2-----------2------2--------4s5--------------------|
D | ---------------------------------------------------------|
A | ---------------------------------------------------------|
E | ---------------------------------------------------------| 

e | ---------------------------------------------------------|
B | -4-5s7--5s4-5--------------------------------------------|
G | --------------5-4-5-4s2--4-2-0---------------------------|
D | ---------------------------------4-2---------------------|
A | ---------------------------------------------------------|
E | ---------------------------------------------------------|

Instrumental
e | ---0---------0----------0----2---------------------------|
B | -0---0--1--1---1------1---4------------------------------|
G | ------------------2-2------------------------------------|
D | ---------------------------------------------------------|
A | ---------------------------------------------------------|
E | ---------------------------------------------------------| 4 X
Tap to rate this tab
# A B C D E F G H I J K L M N O P Q R S T U V W X Y Z