Song name
# A B C D E F G H I J K L M N O P Q R S T U V W X Y Z

Strong Bad - Personal Favorites Email tab

This is played in the beginning of the email titled  "Personal    Favorites"
when Strong Bad says  "ohhHHHH, EMAIL!!"

Guitar 1 (distortion)
e:-------------------------------------------------------------|
A:-------------------------------------------------------------|
D:---------------10(let ring)---------10-8--8------------------|
G:2-2-2--2-2-2--------------2-2-2--2------10-9-8---------------|b-(hold bend)
B:2-2-2--2-2-2--------------2-2-2--2---------------------------|
E:1-1-1--1-1-1--------------1-1-1--1---------------------------|

Guitar 2 (distortion)
e:------------------------------------------------------------|
A:------------------------------------------------------------|
D:------------------------------------------------------------|
G:2-2-2--2-2-2--------------2-2-2--2-2-2--------2-2-2--2-2-2--|
B:2-2-2--2-2-2--------------2-2-2--2-2-2--------2-2-2--2-2-2--|
E:1-1-1--1-1-1--------------1-1-1--1-1-1--------1-1-1--1-1-1--|
Tap to rate this tab
 
# A B C D E F G H I J K L M N O P Q R S T U V W X Y Z