Song name
# A B C D E F G H I J K L M N O P Q R S T U V W X Y Z

Strong Bad - Email 69 tab

----------------------------------------------------------------------------
			     E-mail 69 intro – Strong bad
----------------------------------------------------------------------------
Tabbed by: b-rendan
Email:skatinhere67@yahoo.com------------------------------------------------


Tuning: standard E

e|-----------------------12-------------------------------------------------|
B|--------------------------------------------------------------------------|
G|--------------------------------------------------------------------------|
D|--------------------------------------------------------------------------|
A|---2-2-2----2-2-2---------------------------------------------------------|
E|---0-0-0----0-0-0---------------------------------------------------------|

e|-----------------------12-10----10----------------------------------------|
B|-----------------------------12----12-11-10-------------------------------|
G|--------------------------------------------------------------------------|
D|--------------------------------------------------------------------------|
A|---2-2-2----2-2-2---------------------------------------------------------|
E|---0-0-0----0-0-0---------------------------------------------------------|

e|--------------------------------------------------------------------------|
B|--------------------------------------------------------------------------|
G|--------------------------------------------------------------------------|
D|--------------------------------------------------------------------------|
A|---2-2-2----2-2-2---------------------------------------------------------|
E|---0-0-0----0-0-0---------------------------------------------------------|


That should be right I listened to it like twice so I dunno…
Tap to rate this tab
# A B C D E F G H I J K L M N O P Q R S T U V W X Y Z