Song name
# A B C D E F G H I J K L M N O P Q R S T U V W X Y Z

Strong Bad - Teen Girl Squad tab

Tabbed by:VanCamp
Email:vancamp91@hotmail.com

Tuning:E A D G B e (Only B and e are used)

e|--------------------------9-10-9--|
B|--9h10p9h10--11p9h11p9-9----------|
G|----------------------------------|
D|----------------------------------|
A|----------------------------------|
E|----------------------------------|

e|--------------------------9\12-9\12-9\12-9\12-9\12--| IT'S OVER!
B|--9h10p9h10--11p9h11p9-9---------------------------|
G|----------------------------------------------------|
D|----------------------------------------------------|
A|---------------------------------------------------|
E|----------------------------------------------------|

**This is the main theme of TGS played throughout each episode.So,if you'd like to play 
the actual song,you're gonna need to repeat this MANY times.
Tap to rate this tab
# A B C D E F G H I J K L M N O P Q R S T U V W X Y Z