Song name
# A B C D E F G H I J K L M N O P Q R S T U V W X Y Z

Strongarm - These Times That Try Mens Souls tab

www.myspace.com/strongarm/music

STRONGARM - THESE TIMES THAT TRY MEN'S SOULS

    e|----------------------|
    B|----------------------|
GTR G|----------------------|
1+2 D|-7--5-2-3---2--7--2-3-|
    A|-7--5-2-3---2--7--2-3-|
    E|-5--3-0-1---0--5--0-1-|

    e|-----------------------------|
    B|-----------------------------|
GTR G|-----------------------------|
 1  D|-----------------------------| x3
    A|-2-2-2-7-7-7-3-3-3-3-3-3-3-3-|
    E|-0-0-0-5-5-5-1-1-1-1-1-1-1-1-|
       P M P M P M P M P M P M P M

    e|----------------------|
    B|----------------------|
GTR G|-----4----------------|
 2  D|-2-------3------------| 
    A|----------------------|
    E|----------------------|

    e|----------------------|
    B|----------------------|
GTR G|----------------------|
 1  D|----------------------| 
    A|-2--2---2-------------|
    E|-0--0---0-------------|
       P  M   PM

    e|----------------------|
    B|----------------------|
GTR G|-----4----------------|
 2  D|-2-------3------------| 
    A|----------------------|
    E|----------------------|

    e|-----------------------------|
    B|-----------------------------|
GTR G|-----------------------------|
 1  D|-----------------------------| x3
    A|-2-2-2-2-2-2-3-3-3-3-3-3-3-3-|
    E|-0-0-0-0-0-0-1-1-1-1-1-1-1-1-|
       P M P M P M P M P M P M P M

    e|----------------------|
    B|----------------------|
GTR G|-----4----------------|
 2  D|-2-------3------------| x3
    A|----------------------|
    E|----------------------|

    e|----------------------|
    B|----------------------|
GTR G|-----4----------------|
 2  D|-2-------3------------| 
    A|----------------------|
    E|----------------------|

    e|----------------------|
    B|----------------------|
GTR G|----------------------|
 1  D|----------------------| 
    A|-2--2---2-------------|
    E|-0--0---0-------------|
       P  M   PM

    e|---------------|
    B|---------------|
GTR G|---------------|
1+2 D|---------------|
    A|-2--2--2--2--2-|
    E|-0--0--0--0--0-|
       P  M  P  M  PM

    e|---------------|
    B|---------------|
GTR G|-----4---------|
1+2 D|-2-------3-----|
    A|---------------|
    E|---------------|

    e|---------------|
    B|---------------|
GTR G|---------------|
1+2 D|---------------|
    A|-2--2--2--2--2-|
    E|-0--0--0--0--0-|
       P  M  P  M  PM

    e|--------------------|
    B|----------------3h5-|
GTR G|----------------0---|
1+2 D|----------2-----0h2-|
    A|-33333333---0-0-----|
    E|-11111111-----------|
       PMPMPMPM   P M

    e|---------------------------------------------|
    B|---------------------------------------------|
GTR G|---------------------2-2-2-2-2-2-5-5-5-5-5-5-|
1+2 D|-3-3-3-3-3-3-3-3-3-3-------------------------| x2
    A|-3-3-3-3-3-3-3-3-3-3-0-0-0-0-0-0-3-3-3-3-3-3-|
    E|-1-1-1-1-1-1-1-1-1-1-------------5-5-5-5-5-5-|            

    e|---------------------------------------------|
    B|---------------------------------------------|
GTR G|---------------------2-2-2-2-2-2-5-5-5-5-5-5-|
 1  D|-3-3-3-3-3-3-3-3-3-3-------------------------| x2
    A|-3-3-3-3-3-3-3-3-3-3-0-0-0-0-0-0-3-3-3-3-3-3-|
    E|-1-1-1-1-1-1-1-1-1-1-------------5-5-5-5-5-5-|            

    e|---------------------------------------------|
    B|-----3h5-------3h5---------------------------|
GTR G|-----0---------0-----2-2-2-2-2-2-5-5-5-5-5-5-|
 2  D|-2---0h2---2---0h2---------------------------| x2
    A|---0-----0---0-----0-0-0-0-0-0-0-3-3-3-3-3-3-|
    E|---------------------------------5-5-5-5-5-5-|

    e|---------------------------------------------|
    B|-----3h5-------3h5---------------------------|
GTR G|-----0---------0-----2-2-2-2-2-2-5-5-5-5-5-5-|
1+2 D|-2---0h2---2---0h2---------------------------|
    A|---0-----0---0-----0-0-0-0-0-0-0-3-3-3-3-3-3-|
    E|---------------------------------5-5-5-5-5-5-|
        PM    PM  PM    PM

    e|----------------------|
    B|------------------3h5-|
GTR G|------------------0---|
1+2 D|------------2-----0h2-|
    A|-3333333333---0-0-----|
    E|-1111111111-----------|
       PMPMPMPMPM   P M

    e|---------|
    B|---------|
GTR G|---------|
1+2 D|---------|
    A|-2--2--2-|
    E|-0--0--0-|
       P  M PM

    e|---------------------------------|
    B|---------------------------------|
GTR G|---------------------------------|
 1  D|-7--5--2-3-----------5-----------|
    A|-7--5--2-3-----------5-----------|
    E|-5--3--0-1-----------3-----------|

    e|---------------------------------|
    B|---------------------------------|
GTR G|---------5---5---5---5---5---5---|
 2  D|-7--5------9---9---9---9---9---9-|
    A|-7--5----------------------------|
    E|-5--3--0-------------------------|

    e|-------------------------------------------------|
    B|-------------------------------------3h5---------|
GTR G|-------------------------------------0-----------|
 1  D|-2-----------------------------------0h2-2-------|
    A|-2-----------3-3-3-3-3-3-3-3-3-3-3-3-----2-------|
    E|-0-----------1-1-1-1-1-1-1-1-1-1-1-1-----0-------|
                   P M P M P M P M P M P M

    e|-------------------------------------------------|
    B|-------------------------------------------------|
GTR G|---5---5---5-----5--------5--------5-------------|
 2  D|-9---9---9---9--------9--------9-----0-2-2-------|
    A|-----------------------------------------2-------|
    E|-----------------------------------------0-------|

    e|---------|
    B|---3h5---|
GTR G|---0-----|
1+2 D|-0-0h2-2-|
    A|-------2-|
    E|-------0-|
       PM

    e|-----------------------------|
    B|-----------------------------|
GTR G|-----------------------------|
1+2 D|-----------------------------|
    A|-2---2-2--2-2--2-2--2-2--2-2-|
    E|-0---0-0--0-0--0-0--0-0--0-0-|
       PM  P M  P M  P M  P M  P M

    e|-------------------------------------|
    B|-------------------------------------|
GTR G|-------------------------------------|
1+2 D|-0-2-4-------2-4-4-4-4-4-4-4-4-4-4-4-|
    A|-2-2-2-----------2-2-2-2-2-2-2-2-2-2-|
    E|-------0-3-3-----5-5-5-5-3-3-3-3-2-2-|
             PMP M

    e|---------------------------------------------|
    B|---------------------------------------------|
GTR G|---------------------------------------------|
1+2 D|-0-----2-4-0-----2-4h5p4-4-4-4-4-4-4-4-4-4-4-| x3
    A|---2-2-------------------2-2-2-2-2-2-2-2-2-2-|
    E|-------------3-3---------5-5-5-5-3-3-3-3-2-2-|
         P M       P M     

    e|---------------------|
    B|---------------------|
GTR G|-----0-------------0-|
 1  D|---4---4----4----4---|
    A|-2-------0-----3-----|
    E|---------------------|

    e|---------------------|
    B|---------------------|
GTR G|-----0-------------0-|
 1  D|---4---4----4----4---|
    A|-2-------0-----3-----|
    E|---------------------|

    e|-----------------------------|
    B|-----------------------------|
GTR G|---5-5-5-5-5-5-5-5-5-5-5-5-5-|
 2  D|-2-9-9-9-9-9-9-9-9-9-9-9-9-9-|
    A|-2-7-7-7-7-7-7-7-7-7-7-7-7-7-|
    E|-0-------------------8-8-8-8-|
       PM

    e|-----------------|
    B|-----------------|
GTR G|-6-------6-------|
1+2 D|---10-10---9-9-9-| x3
    A|-----------------|
    E|-----------------|

    e|-----------------|
    B|-----------------|
GTR G|-6-------6-------|
1+2 D|---10-10---9-9---| 
    A|---------------2-|
    E|---------------0-|
                     PM

    e|----------------------------|
    B|----------------------------|
GTR G|----------------------------|
1+2 D|------------------5-5-5-5-5-|
    A|-3333333333333333-5-5-5-5-5-|
    E|-1111111111111111-3-4-3-3-3-|
       PMPMPMPMPMPMPMPM

    e|-------------------------------|
    B|-------------------------------|
GTR G|-5-5-5-------3-3-3-3-3-8--7--8-|
1+2 D|-5-5-5-------3-3-3-3-3---------|
    A|-3-3-3-3-6-5-5-5-5-5-5-5--5--5-|
    E|-------------6-6-6-6-6---------|

    e|-------------------------------|
    B|-------------------------------|
GTR G|-5-5-5-------3-3-3-3-3-8--7--8-|
 1  D|-5-5-5-------3-3-3-3-3---------|
    A|-3-3-3-3-6-5-5-5-5-5-5-5--5--5-|
    E|-------------6-6-6-6-6---------|

    e|-----------------------------------------|
    B|-----------------------------------------|
GTR G|-5-5-5-------7-8-8-8-8-3-3-3-3-3-7/8-8-7-|
 2  D|-5-5-5-----------------3-3-3-3-3---------|
    A|-3-3-3-3-6-5-5-6-6-6-6-5-5-5-5-5-5/6-6-5-|
    E|-----------------------6-6-6-6-6---------|

    e|----------------------------------|
    B|----------------------------------|
GTR G|-5--5--5--8-8-8-7-3--3--3-8-8-8-7-|
1+2 D|-5--3--5----------3--3--3---------|
    A|-3--3--3--6-6-6-5-5--3--5-6-6-6-5-|
    E|------------------6--6--6---------|

    e|-------------------------|
    B|-------------------------|
GTR G|-5-5-5-5-5-5---5-5-5-5-5-|
1+2 D|-5-5-5-5-5-5---5-5-5-5-5-|
    A|-3-3-3-3-3-3---3-3-3-3-3-|
    E|-------------------------|

    e|----------------------------------------------------|
    B|----------------------------------------------------|
GTR G|-555555555555----------------------------5555555555-|
 1  D|-555555555555-555555555555-666666-333333-5555555555-|
    A|-333333333333-555555555555-666666-555555-3333333333-|
    E|--------------333333333333-444444-666666------------|

    e|----------------------------------------------------|
    B|---------4-throughout-------------------------------|
GTR G|-1-0-1-0--------------------------------------------|
 2  D|----------------------------------------------------|
    A|----------------------------------------------------|
    E|----------------------------------------------------|

    e|-------------------------|--- x7 --|---|
    B|-------------------------|---------|---|
GTR G|-------------------------|-5-------|-5-|
 1  D|-6-6-6-6-6-6-3-3-3-3-3-3-|-5--4--3-|-5-|
    A|-6-6-6-6-6-6-5-5-5-5-5-5-|-3--4--3-|-3-|
    E|-4-4-4-4-4-4-6-6-6-6-6-6-|----4--3-|---|
                                    P  M

END
Tap to rate this tab
# A B C D E F G H I J K L M N O P Q R S T U V W X Y Z