Song name
# A B C D E F G H I J K L M N O P Q R S T U V W X Y Z

Strung Out - Scarlet tab

-----------------------------------------------------------------------------
			     SCARLET - Strung Out
-----------------------------------------------------------------------------
Tabbed by:  Tim
Email:  awsskater7586@yahoo.com
This is what I have so far.
Not too hard of a song to play.
Strung Out rocks

Tuning: Full Drop D

Intro: Guitar 1 (Muted)
D|----------10-10----------------99-------|               
A|----------------------------------------|           
F|----11-11-------11-11----11-11----11-11-|      \    
C|-99-------------------99----------------|       \    
G|----------------------------------------|        \   
D|----------------------------------------|         \  
                                                     \   3x
D|-------------------------------------------|       /   
A|-------------------------------10-10-------|      /
F|----------12-12----------------------------|     /
C|-99-12-12-------12-12-99-12-12-------12-11-|    /
G|-------------------------------------------|
D|-------------------------------------------|

D|----------10-10----------------99-------|
A|----------------------------------------|
F|----11-11-------11-11----11-11----11-11-|
C|-99-------------------99----------------|
G|----------------------------------------|
D|----------------------------------------|

D|----10----9----10----12-12-12-|
A|------------------------------|
F|------------------------------|
C|-99----99---99----99----------|
G|------------------------------|
D|------------------------------|

D|----------10-10----------------99-------|
A|----------------------------------------|
F|----11-11-------11-11----11-11----11-11-|
C|-99-------------------99----------------|
G|----------------------------------------|
D|----------------------------------------|

D|-------------------------------------------|
A|-------------------------------10-10-------|
F|----------12-12----------------------------|
C|-99-12-12-------12-12-99-12-12-------12-11-|
G|-------------------------------------------|
D|-------------------------------------------|

D|----------10-10----------------99-------|
A|----------------------------------------|
F|----11-11-------11-11----11-11----11-11-|
C|-99-------------------99----------------|
G|----------------------------------------|
D|----------------------------------------|

D|----10p9----9----10p9----12p10-10p9-|
A|------------------------------------|
F|------------------------------------|
C|-99------99---99-------99-----------|
G|------------------------------------|
D|------------------------------------|

Intro Guitar 2 (chords, you can figure out the rhythm)
D|-----------------|
A|-----------------|
F|-4---------------|
C|-4--------5---7--|
G|-2--------5---7--|
D|----------3---5--|

D|-----------------|
A|-----------------|
F|-4----------7----|
C|-4--------5-7-7--|
G|-2--------5-5-7--|
D|----------3---5--|

Verse 1 Guitar 1 x4
D|----10----10----9----9----9----7----7----5----5----5\4-|
A|-00----00----00---00---00---00---00---00---00---00-----|
F|-------------------------------------------------------|
C|-------------------------------------------------------|
G|-------------------------------------------------------|
D|-------------------------------------------------------|
   xx    xx    xx   xx   xx   xx   xx   xx   xx   xx

Verse 1 Guitar 2 (chords) x4
D|----------------------------|
A|----------------------------|
F|-444444444444---------------|
C|-444444444444-555555-777777-|
G|-222222222222-555555-777777-|
D|--------------333333-555555-|
   xx xx xx xx  xx xx  xx xx 

Pre-Chorus (both guitars)x1
D|---------------------------------------|
A|---------------------------------------|
F|-----------------------------PICKSLIDE!|
C|-5-5-5-5-5-5-5-7-7-7-7-7-7-7-----------|
G|-5-5-5-5-5-5-5-7-7-7-7-7-7-7-----------|
D|-3-3-3-3-3-3-3-5-5-5-5-5-5-5-----------|

Chorus (both guitars) x2
D|----------------------------------------------------------------|
A|----------------------------------------------------------------|
F|-44444-666-77---------4-4------44444-666-77---------------------|
C|-44444-666-77-7-7-4-4-4-4-6-6--44444-666-77-7-7-4-4-44-00-------|
G|-22222-444-55-7-7-4-4-2-2-6-6--22222-444-55-7-7-4-4-------22----|
D|--------------5-5-2-2-----4-4---------------5-5-2-2----------22-|
                                                      xx xx xx xx

Post-Chorus (both guitars) x1
D|---------------------------------------|
A|---------------------------------------|
F|-444444444444444444444444444-----------|
C|-444444444444444444444444444-----------|
G|-222222222222222222222222222-----------|
D|---------------------------------------|
    xx xx xx xx xx xx xx xx xx

Verse 2 (both guitars) x4 
(There is some sweet riff in here but i didn't figure it out)
D|----------------------------------|
A|----------------------------5+-5+-|
F|-444444444444---------------------|
C|-444444444444-555555-777777-------|
G|-222222222222-555555-777777-------|
D|--------------333333-555555-------|
   xx xx xx xx  xx xx  xx xx 
Pre-Chorus

Chorus

Bridge 1 x1
D|-------------------------------------------------------------------|
A|-------------------------------------------------------------------|
F|-4444-6666-7777-9999-1111111111111111-161616-14-12-9/1111\7-777777-|
C|-xxxx-xxxx-xxxx-xxxx--x-x-x-x-x-x-x-x--x-x-x--x--x-x/-x-x\x-xxxxxx-|
G|-2222-4444-5555-7777--9-9-9-9-9-9-9-9-141414-12-10-7/-9-9\5-555555-|
D|-------------------------------------------------------------------|

D|-------------------------|
A|-------------------------|
F|-11111111-9999-7777-6666-|
C|--x-x-x-x-xxxx-xxxx-xxxx-|
G|--9-9-9-9-7777-5555-4444-|
D|-------------------------|

Solo - Sorry haven't figured out yet...
Play this under it. x4
D|----------------------------|
A|----------------------------|
F|-444444444444---------------|
C|-444444444444-555555-777777-|
G|-222222222222-555555-777777-|
D|--------------333333-555555-|

Bridge 2 not figured out.

Chorus

Verse 1 (Same as Ending)

End 2
D|-----------------|
A|-----------------|
F|-4-4-------------|
C|-4-4-4-4-5-5-7-7-|
G|-2-2-4-4-5-5-7-7-|
D|-----2-2-3-3-5-5-|

End On:
D|---|
A|---|
F|-4-|
C|-4-|
G|-2-|
D|---|
   

| /  slide up
| \  slide down
| h  hammer-on
| p  pull-off
| ~  vibrato
| +  harmonic
| x  Mute note
=============================================================================
Tap to rate this tab
 
# A B C D E F G H I J K L M N O P Q R S T U V W X Y Z