Guitaretab - guitar tabs
Song name
# A B C D E F G H I J K L M N O P Q R S T U V W X Y Z

Strung Out - Swan Dive tab

e------------------------------------------------------------------|
b--2-2-2-2--2-2-2-2-(5)--3-3-2-3--3-3-2-3--(5)---3-3-2-3-----------|
g--3-3-2-3--3-3-2-3-(2)--2-2-2-2--2-2-2-2--(2)---2-2-2-2-----------|
D--0-0-0-0--0-0-0-0-(0)--2-2-2-2--2-2-2-2--(0)---0-0-0-0-----------|
A------------------------------------------------2-2-2-2-----------|
E------------------------------------------------------------------|

e--------------------------5---------------------------------------|
b-8-8-7-5-7 8----------------8-7-5-7-8--5-----8-7-5----------5-----|
g---------------7/9\7----7-------------7--7-7-------7--7-7-7---7---|
D------------------------------------------------------------------|
A------------------------------------------------------------------|
E------------------------------------------------------------------|

verse: count the strikes by yourself. these are  the chords played and those are correct 
am qiute sure! this part is played 2 times
e---------------------------------------------------------|
b---------------------------------------------------------|
g---7-7-7-7----2-2-2-2------------------------------------|
D---7-7-7-7----4-4-4-4--5-5-5-5--5-5-5-5------------------|
A---5-5-5-5----4-4-4-4--5-5-5-5--5-5-5-5------------------|
E-----------------------3-3-3-3--7-7-7-7------------------|

pre chorus:
3x
e---------------------------------------------------------------|
b---------------------------------------------------------------|
g--4-4-4-4------------7-7-7-7-----------------------------------|
D--4-4-4-4---5-5-5-5--7-7-7-7--7-7-7-7--------------------------|
A--2-2-2-2---5-5-5-5--5-5-5-5--7-7-7-7-----(-5p7----------------|
E------------3-3-3-3-----------5-5-5-5-----------7-)------------|

pre chorus last time

e-----------------------------------------------------------|
b-----------------------------------------------------------|
g-----------------------------------------------------------|
D-4-4-4-4-4-4-4-4-------------------------------------------|
A-4-4-4-4-4-4-4-4--5-5-5-5----------------------------------|
d-2-2-2-2-2-2-2-2--5-5-5-5----------------------------------|
E------------------3-3-3-3----------------------------------|

main chorus:

e-------------------------------------------------------|
b-------------------------------------------------------|
g--7-7-7-7-7-7-7-7---------------------4-4-4-4-4-4-4-4--|
D--7-7-7-7-7-7-7-7---7-7-7-7-7-7-7-7---4-4-4-4-4-4-4-4--|
A--5-5-5-5-5-5-5-5---7-7-7-7-7-7-7-7---2-2-2-2-2-2-2-2--|
E--------------------5-5-5-5-5-5-5-5--------------------|

e--------------------------| the chorus is played 2 times
b--------------------------| count carefully at the second time because
g--------------------------| the chorus doesnt go the same way the chords are
D--5-5-5-5-5-5-5-5---------| given so it shouldnt be a problem
A--5-5-5-5-5-5-5-5---------|
E--3-3-3-3-3-3-3-3---------|


e---------------------------------------------------------|
b---------------------------------------------------------|
g---7-7-7-7----2-2-2-2------------------------------------|
D---7-7-7-7----4-4-4-4--5-5-5-5--5-5-5-5------------------|
A---5-5-5-5----4-4-4-4--5-5-5-5--5-5-5-5------------------|
E-----------------------3-3-3-3--7-7-7-7------------------|

e--------------------------------------------14-----------|
b--------------------------------15-14-15-17----17--15----|
g--7---7--9--11-7--7-6--(7)-------------------------------|
D---------------------------------------------------------|
A--5---5--7--9--9--5-4--(5)-------------------------------|
E---------------------------------------------------------|

[ Tab from: http://www.guitaretab.com/s/strung-out/140491.html ]
e------------------------------------------------------------|
b------------------------------------------------------------|
g--4-4-4-4------------7-7-7-7--------------------------------|
D--4-4-4-4---5-5-5-5--7-7-7-7--7-7-7-7-----------------------|
A--2-2-2-2---5-5-5-5--5-5-5-5--7-7-7-7----(5p7---------------|3x
E------------3-3-3-3-----------5-5-5-5--------7-)------------|


e---------------------------------------------|
b---------------------------------------------|
g--4-----7-----4-----7-----4-----7-----4------|
D--4--5--7--7--4--5--7--7--4--5--7--7--4------|
A--2--5--5--7--2--5--5--7--2--5--5--7--2------|
E-----3-----5-----3-----5-----3-----5---------|

                                        ^ ^ ^ ^ ^ ^ ^ ^
e--------------------------------------------------------|
b--8-7-7------8-7-7------8-7-7----------8-8-8-8-8-8-8-8--|
g--------9-7-------9--7--------9-7-----------------------|
D------------7----------7----------7---------------------|
A--------------------------------------------------------|
E--------------------------------------------------------|

e---------------------------------------------------------------------|
b--3-3-2-3--3-2-3-2--3-3-2-3--3-2-3-2----3-3-2-3--5-2-2-2-2-3-3-3-3-2-|
g--2-2-2-2--2-2-2-2--2-2-2-2--2-2-2-2----2-2-2-2--2-2-2-2-2-2-2-2-2-2-|
D--0-0-0-0--0-0-0-0--2-2-2-2--2-2-2-2----0-0-0-0--0-0-0-0-0-0-0-0-0-0-|
A----------------------------------------2-2-2-2----------------------|
E---------------------------------------------------------------------|

e----------------|
b-11p7\5---------|
g----------------|
D----------------|repeat this until chorus
A----------------|
E----------------|

pre chorus:
3x
e----------------------------------------------------------|
b----------------------------------------------------------|
g--4-4-4-4------------7-7-7-7------------------------------|
D--4-4-4-4---5-5-5-5--7-7-7-7--7-7-7-7---------------------|
A--2-2-2-2---5-5-5-5--5-5-5-5--7-7-7-7---------------------|
E------------3-3-3-3-----------5-5-5-5---------------------|

e---------------------------------------------|
h---------------------------------------------|
g-4-7-7-7-7-9-9-9-9--7-7-7-7-6-6-6-6----------| whee powerslide!
D-4-------------------------------------------|
A-2-------------------------------------/-//--|
E--------------------------------------/-//---|


chorus 2x
e-------------------------------------------------------|
b-------------------------------------------------------|
g--7-7-7-7-7-7-7-7---------------------4-4-4-4-4-4-4-4--|
D--7-7-7-7-7-7-7-7---7-7-7-7-7-7-7-7---4-4-4-4-4-4-4-4--|
A--5-5-5-5-5-5-5-5---7-7-7-7-7-7-7-7---2-2-2-2-2-2-2-2--|
E--------------------5-5-5-5-5-5-5-5--------------------|

e--------------------------|
b--------------------------|
g--------------------------|
D--5-5-5-5-5-5-5-5---------|
A--5-5-5-5-5-5-5-5---------|
E--3-3-3-3-3-3-3-3---------|

count carefully
e----------------------------------------------------------------|
b--3-3-2-3-2-3-2-3-2---3-3-2-3-2-3-2-3-2---3-3-2-3-2-3-2-3-2-----|
g--2-2-2-2-2-2-2-2-2---2-2-2-2-2-2-2-2-2---2-2-2-2-2-2-2-2-2-----|
D--0-0-0-0-0-0-0-0-0---2-2-2-2-2-2-2-2-2---0-0-0-0-0-0-0-0-0-----|
A------------------------------------------2-2-2-2-2-2-2-2-2-----|
E----------------------------------------------------------------|


e-----------------------------------5-5-------------------------------|
b--3-3-2-2-0-------------------5-5------7-7-5-5-----5-5-7-7-5-5-------|
g--2-2-2-2-0--2----7-7-6-6-7-7------------------7-7-------------7-7---|
D--0-0-0-0-0--0-------------------------------------------------------|
A-------------2-------------------------------------------------------|
E---------------------------------------------------------------------|

e-------------------------------|
b---5-5-------------------------|
g-------5-5---------------------| end with these flute noises!
D------------7-7----------------|
A----------------7-7------------|
E-------------------------------|
Related for Swan Dive tab
Advertisement will be closed in 10 seconds