Song name
# A B C D E F G H I J K L M N O P Q R S T U V W X Y Z

Strung Out - Dirty Little Secret tab

Song:  Dirty Little Secret
Band:  Strung Out
Album: Blackhawks Over Los Angeles

Drop D tuning - DADGBe
tabbed by: Milo

Intro:

00:03
|--------------------------------------------------|
|--------------------------------------------------|
|--------------6-6-6-------9-9-9-6-6-6-7-7-7-------|
|--------------------7-7-7-------------------5-5-5-|
|--5-5-5-------------------------------------------|
|--------0-0-0-------------------------------------|

00:07     Guitar two comes in playing same thing
|--------------------------------------------------|
|--------------------------------------------------|
|--------------6-6-6-------9-9-9-6-6-6-7-7-7-------|  
|--------------------7-7-7-------------------4-5-4-|
|--5-5-5-------------------------------------------|
|--------0-0-0-------------------------------------|

00:10     
|--------------------------------------------------|
|--------------------------------------------------|
|--------------6-6-6-------9-9-9-6-6-6-7-7-7-------|
|--------------------7-7-7-------------------5-5-5-|
|--5-5-5-------------------------------------------|
|--------0-0-0-------------------------------------|

00:13     Guitar two plays third below here
|------------------------------------------------|
|--------------------------5-5-5-7-7-7-8--7h8p7--|
|--------------6-6-6-----------------------------|
|--------------------7-7-7-----------------------|
|--5-5-5-----------------------------------------|
|--------0-0-0-----------------------------------|

Chorus:
w/o vocals
00:17
|-------------------------------------------------------------------------------------|
|-------------------------------------------------------------------------------------|
|--7-7-7-7--7-7-7-7-7-7-7-7-7-7--7-7-7-7-7-7-7-7-7-7--7-7-7-7-7-7---------------------|
|--7-7-7-7--7-7-7-7-7-7-7-7-7-7--7-7-7-7-7-7-7-7-7-7--7-7-7-7-7-7--5-5-5-5--5-7-7-7-7-| 
|--5-5-5-5--5-5-5-5-5-5--------------------------------------------5-5-5-5--5-7-7-7-7-|
|-----------------------7-7-7-7--7-7-7-7-7-7-5-5-5-5--5-5-5-5-5-5--5-5-5-5--5-7-7-7-7-|

Verse:

00:30
|---------------------------------------------|
|---------------------------------------------|
|--7-------9-9-9/11-----7---------------------|
|--7--------------------7------------4h5--4---|
|--5-------7-7-7/9---0--5-------5h7---------5-|
|----0-0-0-----------0----0-0-0---------------|
  Wouldn't understand if I told you so...

00:34
|---------------------------------------|
|---------------------------------------|
|--7-------9-9-9/11-----7-------12-11-9-|
|--7--------------------7---------------|
|--5-------7-7-7/9---0--5-------10-9--7-|
|----0-0-0-----------0----0-0-0---------|
    Wouldn't know what to do..

00:37
|---------------------------------------------|
|---------------------------------------------|
|--7-------9-9-9/11-----7---------------------|
|--7--------------------7------------4h5--4---|
|--5-------7-7-7/9---0--5-------5h7---------5-|
|----0-0-0-----------0----0-0-0---------------|

00:41
|-----------------------------|
|-----------------------------|
|--7----------------7---12-11-|
|--7---7-7-7-7-9----7---------|
|--5-0------------0-5---10-9--|
|----0-7-7-7-7-9--0---0-------|

00:44
|--------------------------------------|
|--------------------------------------|
|----------12-12-12-12-----------------|
|--7-7-7-7-12-12-12-12-7-7-7-7-5-5-7-7-| gtr.1
|--7-7-7-7-10-10-10-10-7-7-7-7-5-5-7-7-|
|--7-7-7-7-------------7-7-7-7-5-5-7-7-|
So don't bring me down...              |
|--------------------------------------|
|--------------------------------------|
|-----------12-12----------------------|
|--7-7-9~---12-12-11~-7-7-9~---5-5-7-7-| gtr.2
|--7-7------10-10-----7-7------5-5-7-7-|
|--7-7----------------7-7------5-5-7-7-|


Chorus:
00:51
|-------------------------------------------------------------------------------------|
|-------------------------------------------------------------------------------------|
|--7-7-7-7--7-7-7-7-7-7-7-7-7-7--7-7-7-7-7-7-7-7-7-7--7-7-7-7-7-7---------------------|
|--7-7-7-7--7-7-7-7-7-7-7-7-7-7--7-7-7-7-7-7-7-7-7-7--7-7-7-7-7-7--5-5-5-5--5-7-7-7-7-| 
|--5-5-5-5--5-5-5-5-5-5--------------------------------------------5-5-5-5--5-7-7-7-7-|
|-----------------------7-7-7-7--7-7-7-7-7-7-5-5-5-5--5-5-5-5-5-5--5-5-5-5--5-7-7-7-7-|
    A little stranger than fiction...                                                 |
|-------------------------------------------------------------------------------------|
|-------------------------------------------------------------------------------------|
|--11~---------------12-9~-------------------7-7-7-7--7-7-7-7-------7--9------11--9---| 
|-------------------------------------------------------------------------------------|
|--9-----------------10-7--------------------5-5-5-5--5-5-5-5-------5--7------9---7---|
|-------------------------------------------------------------------------------------|

00:57
|-------------------------------------------------------------------------------------|
|-------------------------------------------------------------------------------------|
|--7-7-7-7--7-7-7-7-7-7-7-7-7-7--7-7-7-7-7-7-7-7-7-7--7-7-7-7-7-7---------------------|
|--7-7-7-7--7-7-7-7-7-7-7-7-7-7--7-7-7-7-7-7-7-7-7-7--7-7-7-7-7-7--5-5-5-5--5-7-7-7-7-| 
|--5-5-5-5--5-5-5-5-5-5--------------------------------------------5-5-5-5--5-7-7-7-7-|
|-----------------------7-7-7-7--7-7-7-7-7-7-5-5-5-5--5-5-5-5-5-5--5-5-5-5--5-7-7-7-7-|
     We've all got our song to write...                                               |
|-------------------------------------------------------------------------------------|
|-------------------------------------------------------------------------------------|
|--11~---------------12-9~-------------------7-7-7-7--7-7-7-7-------11-12-----9---11--| 
|-------------------------------------------------------------------------------------|
|--9-----------------10-7--------------------5-5-5-5--5-5-5-5-------9--10-----7---9---|
|-------------------------------------------------------------------------------------|

Bridge:
01:04
|-------------------------------------------------|
|-------------------------------------------------|
|--------------6-6-6-------9-9-9-6-6-6------------|
|--------------------7-7-7--------------5-5---7-7-|
|--5-5-5--------------------------------5-5---7-7-|
|--------0-0-0--------------------------5-5---7-7-|

Verse
01:08

Chorus
01:36

Bass solo
01:49

|-------------------------|
|-------------------------|
|--7~----7~---------------|
|--7-----7-------5-5--7-7-|
|--5-----5-------5-5--7-7-|
|----------------5-5--7-7-|

Chorus

Intro over Chorus chords

Thanks, maybe that'll inspire some of you to tab some of the other (harder) songs on the cd
Peace out.
Tap to rate this tab
 
# A B C D E F G H I J K L M N O P Q R S T U V W X Y Z