Song name
# A B C D E F G H I J K L M N O P Q R S T U V W X Y Z

Strung Out - Matchbook tab

Matchbook - Strung Out
----------------------------------------------------------------------------

Tabbed by: Daveage(daveage101@gmail.com)

Standard tuning, Im 90% sure this is how Jake Kiley plays this song. Enjoy and hit 
me up if you see anything wrong 

Intro: Lead Guitar (10x)
e|--------------------------------------------------------------------------|
B|4---4---7---7---4---------------------------------------------------------|
G|--4---4---4---4---4-6-4---4---4-------------------------------------------|
D|------------------------4-------------------------------------------------|
A|----------------------------7---------------------------------------------|
E|--------------------------------------------------------------------------|
Intro: Rhythm Guitar (2x)
e|--------------------------------------------------------------------------|
B|--------------------------------------------------------------------------|
G|--------------------------------4-4-4-4-4-4-4-4---------------------------|
D|6-6-6-6-6-6-6-6-2-2-2-2-2-2-2-2-4-4-4-4-4-4-4-4-4-4-4-4-4-4-4-4-----------|
A|6-6-6-6-6-6-6-6-2-2-2-2-2-2-2-2-2-2-2-2-2-2-2-2-4-4-4-4-4-4-4-4-----------|
E|4-4-4-4-4-4-4-4-0-0-0-0-0-0-0-0-----------------2-2-2-2-2-2-2-2-----------|
Verse: "I can see it in your eyes..." let chords ring (2x)
e|--------------------------------------------------------------------------|
B|--------------------------------4---4---4---4-----------------------------|
G|----------------------------------4---4---4---4---------------------------|
D|6---------------2-------------------------------4-------------------------|
A|6---------------2-------------------------------4-------------------------|
E|4---------------0-------------------------------2-------------------------|
Chorus: "don't look back in anger though its all you can see"
e|--------------------------------------------------------------------------|
B|--------------------------------------------------------------------------|
G|--------4-4-x-4-----------------4-5-4---------4-4-x-4---------------------|
D|6-6-x-6-4-4-x-4-2-2-x-2-4-4-x-4-------6-6-x-6-4-4-x-4-4-4-x-4-2-2-x-2-----|
A|6-6-x-6-2-2-x-2-2-2-x-2-4-4-x-4-------6-6-x-6-2-2-x-2-4-4-x-4-2-2-x-2-----|
E|4-4-x-4---------0-0-x-0-2-2-x-2-------4-4-x-4---------2-2-x-2-0-0-x-0-----|

e|--------------------------------------------------------------------------|
B|--------------------------------------------------------------------------|
G|--------------------------------4-4-4-4-4-4-4-4---------------------------|
D|6-6-6-6-6-6-6-6-2-2-2-2-2-2-2-2-4-4-4-4-4-4-4-4-4-4-4-4-2-2-2-2-----------|
A|6-6-6-6-6-6-6-6-2-2-2-2-2-2-2-2-2-2-2-2-2-2-2-2-4-4-4-4-2-2-2-2-----------|
E|4-4-4-4-4-4-4-4-0-0-0-0-0-0-0-0-----------------2-2-2-2-0-0-0-0-----------|

e|--------------------------------------------------------------------------|
B|--------------------------------------------------------------------------|
G|----------------4-4-4-4-4-4-4-4-------------------------------------------|
D|6-6-6-6-6-6-6-6-4-4-4-4-4-4-4-4-4-x-x-4-4-2-------------------------------|
A|6-6-6-6-6-6-6-6-2-2-2-2-2-2-2-2-4-x-x-4-4-2-------------------------------|
E|4-4-4-4-4-4-4-4-----------------2-x-x-2-2-0-------------------------------|
Palm muted then back to intro                     "cause i've cut you off"
e|--------------------------------------------------------------------------|
B|--------------------------------------------------------------------------|
G|--------------------------------4-4-4-4-4-4-4-4---------------------------|
D|2-2-2-2-2-2-2-2-6-6-6-6-6-6-6-6-4-4-4-4-4-4-4-4-4-4-4-4-4-4-4-4--4--4--2--|
A|2-2-2-2-2-2-2-2-6-6-6-6-6-6-6-6-2-2-2-2-2-2-2-2-4-4-4-4-4-4-4-4--4--4--2--|
E|0-0-0-0-0-0-0-0-4-4-4-4-4-4-4-4-----------------2-2-2-2-2-2-2-2--2--2--0--|
Solo: 
e|4---4---7---7---4---4---7---7---4---4---7---7---------------4---4---7---7--|
B|--4---4---4---4---4---4---4---4---4---4---4---4---------------4---4---4---4|
G|------------------------------------------------4-3---3-4-6---------------|
D|----------------------------------------------------4---------------------|
A|--------------------------------------------------------------------------|
E|--------------------------------------------------------------------------|
Breakdown: Rhythm Guitar (2x)
e|--------------------------------------------------------------------------|
B|--------------------------------------------------------------------------|
G|-------------2-2-2-2-2-4-4-4-4-4-4-4-4------------------------------------|
D|6-6-6-6-6----2-2-2-2-2-4-4-4-4-4-4-4-4-4-4-4-4-4--------------------------|
A|6-6-6-6-6----0-0-0-0-0-2-2-2-2-2-2-2-2-4-4-4-4-4--------------------------|
E|4-4-4-4-4------------------------------2-2-2-2-2--------------------------|

e|--------------------------------------------------------------------------|
B|--------------------------------------------------------------------------|
G|-------------2-2-2-2-2----4-4-4-4-4---------------------------------------|
D|6-6-6-6-6----2-2-2-2-2----4-4-4-4-4----4-4-4-4-4--------------------------|
A|6-6-6-6-6----0-0-0-0-0----2-2-2-2-2----4-4-4-4-4--------------------------|
E|4-4-4-4-4------------------------------2-2-2-2-2--------------------------|
Breakdown: Lead Guitar (2x)
e|4-4-4-5-5-5-7-7-7-7-7-----------------------------------------------------|
B|----------------------2---2---2---2---4---4---4---4---7---7---7---7-------|
G|----------------------4---4---4---4---4---4---4---4---4---4---4---4-------|
D|--------------------------------------------------------------------------|
A|--------------------------------------------------------------------------|
E|--------------------------------------------------------------------------|

I'm sure you can get the rest. It's just a repeat of the begining.
Tap to rate this tab
# A B C D E F G H I J K L M N O P Q R S T U V W X Y Z