Song name
# A B C D E F G H I J K L M N O P Q R S T U V W X Y Z

Strung Out - Ghost Town tab

-----------------------------------------------------------------------------
                             Ghost Town - Strung Out
-----------------------------------------------------------------------------
Tabbed by:Mr. Pilkington
E-mail:matthewsmerdel@att.net

Tuning:DGCFAd
So here is Ghost Town.  Some rhythm tabbed out but mostly not because it's easy to 
figure out.  Enjoy and please feel free to email any critiques to me, but I'm sure this is 
damn good enough.

Intro-repeat a few times
d|----------------------------------------------------------------------------|
A|----------------------------------------------------------------------------|
F|--1111--99--77--99--1111--1212--1111--77------------------------------------|
C|----------------------------------------------------------------------------|
G|--9-9---77--55--77--9-9---1010--9-9---55------------------------------------|
D|----------------------------------------------------------------------------|

then it just does this
d|----------------------------------------------------------------------------|
A|----------------------------------------------------------------------------|
F|--1111--99--77--99--1111--1212--11-9--7-------------------------------------|
C|--------------------------------------7-------------------------------------|
G|--9-9---77--55--77--9-9---1010--9--7--5-------------------------------------|
D|----------------------------------------------------------------------------|

Then this(you can figure the strumming out)
d|----------------------------------------------------------------------------|
A|----------------------------------------------------------------------------|
F|--2----7----4---------------------------------------------------------------|
C|--2----7----4----5----------------------------------------------------------|
G|--0----5----2----5----------------------------------------------------------|
D|-----------------3----------------------------------------------------------|


Play above part a few times then it goes into this
d|----------------------------------------------------------------------------|
A|----------------------------------------------------------------------------|
F|---7---------4----2---------------------------------------------------------|
C|---7----2----4----2---------------------------------------------------------|
G|---5----2----2----0---------------------------------------------------------|
D|--------0-------------------------------------------------------------------|
palm mute the first chord every other time

then it goes back into this but the transition starts with
d|----------------------------------------------------------------------------|
A|----------------------------------------------------------------------------|
F|------7---4--------2---7---4------------------------------------------------|
C|--5---7---4---5----2---7---4---5--------------------------------------------|
G|--5---5---2---5----0---5---2---5--------------------------------------------|
D|--3-----------3----------------3--------------------------------------------|

then it goes back to this(again, palm mute the first chord every other time)
d|----------------------------------------------------------------------------|
A|----------------------------------------------------------------------------|
F|---7-------4---2------------------------------------------------------------|
C|---7---2---4---2------------------------------------------------------------|
G|---5---2---2---0------------------------------------------------------------|
D|-------0--------------------------------------------------------------------|
play 4 times then


d|----------------------------------------------------------------------------|
A|----------------------------------------------------------------------------|
F|------------------7-------9-------------------------------------------------|
C|--5---9---7-------7---7---9---5---------------------------------------------|
G|--5---9---7-------5---7---7---5---------------------------------------------|
D|--3---7---5-----------5-------3---------------------------------------------|

then it does this
d|----------------------------------------------------------------------------|
A|----------------------------------------------------------------------------|
F|--7-------9----------1212-11------------------------------------------------|
C|--7---7---9---4-5----1212-11------------------------------------------------|
G|--5---7---7---4-5----1010-9-------------------------------------------------|
D|------5-------2-3-----------------------------------------------------------|


then back to this part, same as before
d|----------------------------------------------------------------------------|
A|----------------------------------------------------------------------------|
F|--7---------4----2----------------------------------------------------------|
C|--7----2----4----2----------------------------------------------------------|
G|--5----2----2----0----------------------------------------------------------|
D|-------0--------------------------------------------------------------------|

Yesterday's a memory...
d|----------------------------------------------------------------------------|
A|----------------------------------------------------------------------------|
F|--4-------4---------------------------7-------------------------------------|
C|--4---5---4---7---5---4---5---7---5---7-------------------------------------|
G|--2---5---2---7---5---4---5---7---5---5-------------------------------------|
D|------3-------5---3---2---3---5---3-----------------------------------------|

Then back to the intro over the rhythm guitar but faster, end the same way
d|----------------------------------------------------------------------------|
A|----------------------------------------------------------------------------|
F|--11--9--7--9--11--12--11--7------11--9--7--9--11--12--11-9--7--------------|
C|-------------------------------------------------------------7--------------|
G|--9---7--5--7--9---10--9---5------9---7--5--7--9---10--9--7--5--------------|
D|----------------------------------------------------------------------------|


************************************

| /   slide up
| \   slide down
| h   hammer-on
| p   pull-off
| ~   vibrato
| +   harmonic
| x   Mute note
| b   Bend
| pb  Pre-bend
| br  Bend release
| pbr Pre-bend release
| brb Bend release bend

************************************
Tap to rate this tab
 
# A B C D E F G H I J K L M N O P Q R S T U V W X Y Z