Guitaretab - guitar tabs
Song name
# A B C D E F G H I J K L M N O P Q R S T U V W X Y Z

Strung Out - Savant tab

* Artist: Strung Out
* Song Title: Savant
* Album: Element of Sonic Defiance

--------------------------------------------------------------------------------------|
--------------------------------------------------------------------------------------|
--------7-7-6-6-----------------------------------7-7-6-6-----------------------------|
-------------------7-7-6-6-4-4-6-0-6-7------------------7-7-6-6-4-4-------------------|
-9-9-----------------------------------------9-9-----------------------------5-5-5-5--|
--------------------------------------------------------------------------------------|

[ Tab from: http://www.guitaretab.com/s/strung-out/58137.html ]
---------------------------------------------------------------------------|
---------------------------------------------------------------------------|
--------7-7-6-6-----------------------------------7-7-6-6-------6-6-6-6-6--|
-------------------7-7-6-6-4-4-6-0-6-7-------------------7-7-4-4-0-4-4-----|
-9-9-----------------------------------------9-9---------------------------|
---------------------------------------------------------------------------|

---------------------------------------------------------------------------|
---------------------------------------------------------------------------|
---------------------------------------------------------------------------|
-------7-7-6-6-------------------------------------7-7-6-6-----------------|
-4-4-5-5-4-4-7-7-6-6-4-4-6-6-6-7----4-4-5-5-4-4-7-7-6-6-4-4-7-7-7-7--------|
-2-2------------5-5-4-4-2-2-4-0-4-5----2-2------------5-5-4-4-2-2-0-0-0-0--|

----------------------------------------------------------------------|
----------------------------------------------------------------------|
----------------------------------------------------------------------|
-------7-7-6-6-------------------------------------7-7-6-6------------|
-4-4-5-5-4-4-7-7-6-6-4-4-6-6-6-7----4-4-5-5-4-4-7-7--4-4----4-4-------|
-2-2------------5-5-4-4-2-2-4-0-4-5----2-2------------5-5--2-2-0-1-1--|

* WWW.STRUNGOUT.COM
* Copyright 1996 - Strung Out
Related for Savant tab